  0
SECTION
  2
HEADER
  9
$ACADVER
  1
AC1032
  9
$ACADMAINTVER
 90
       55
  9
$DWGCODEPAGE
  3
ANSI_1252
  9
$LASTSAVEDBY
  1
Pifrement
  9
$REQUIREDVERSIONS
160
                 0
  9
$INSBASE
 10
0.0
 20
0.0
 30
0.0
  9
$EXTMIN
 10
-8562.147008357093
 20
-3277.879671498471
 30
-8562.147008357093
  9
$EXTMAX
 10
-8561.70700815709
 20
-3277.62836929847
 30
-8561.70700815709
  9
$LIMMIN
 10
-8562.147008357093
 20
-3277.879671498471
  9
$LIMMAX
 10
-8561.70700815709
 20
-3277.62836929847
  9
$ORTHOMODE
 70
     0
  9
$REGENMODE
 70
     1
  9
$FILLMODE
 70
     1
  9
$QTEXTMODE
 70
     0
  9
$MIRRTEXT
 70
     1
  9
$LTSCALE
 40
1.0
  9
$ATTMODE
 70
     1
  9
$TEXTSIZE
 40
0.2
  9
$TRACEWID
 40
0.05
  9
$TEXTSTYLE
  7
Standard
  9
$CLAYER
  8
0
  9
$CELTYPE
  6
ByLayer
  9
$CECOLOR
 62
   256
  9
$CELTSCALE
 40
1.0
  9
$DISPSILH
 70
     0
  9
$DIMSCALE
 40
1.0
  9
$DIMASZ
 40
0.18
  9
$DIMEXO
 40
0.0625
  9
$DIMDLI
 40
0.38
  9
$DIMRND
 40
0.0
  9
$DIMDLE
 40
0.0
  9
$DIMEXE
 40
0.18
  9
$DIMTP
 40
0.0
  9
$DIMTM
 40
0.0
  9
$DIMTXT
 40
0.18
  9
$DIMCEN
 40
0.09
  9
$DIMTSZ
 40
0.0
  9
$DIMTOL
 70
     0
  9
$DIMLIM
 70
     0
  9
$DIMTIH
 70
     1
  9
$DIMTOH
 70
     1
  9
$DIMSE1
 70
     0
  9
$DIMSE2
 70
     0
  9
$DIMTAD
 70
     0
  9
$DIMZIN
 70
     0
  9
$DIMBLK
  1

  9
$DIMASO
 70
     1
  9
$DIMSHO
 70
     1
  9
$DIMPOST
  1

  9
$DIMAPOST
  1

  9
$DIMALT
 70
     0
  9
$DIMALTD
 70
     2
  9
$DIMALTF
 40
25.4
  9
$DIMLFAC
 40
1.0
  9
$DIMTOFL
 70
     0
  9
$DIMTVP
 40
0.0
  9
$DIMTIX
 70
     0
  9
$DIMSOXD
 70
     0
  9
$DIMSAH
 70
     0
  9
$DIMBLK1
  1

  9
$DIMBLK2
  1

  9
$DIMSTYLE
  2
Standard
  9
$DIMCLRD
 70
     0
  9
$DIMCLRE
 70
     0
  9
$DIMCLRT
 70
     0
  9
$DIMTFAC
 40
1.0
  9
$DIMGAP
 40
0.09
  9
$DIMJUST
 70
     0
  9
$DIMSD1
 70
     0
  9
$DIMSD2
 70
     0
  9
$DIMTOLJ
 70
     1
  9
$DIMTZIN
 70
     0
  9
$DIMALTZ
 70
     0
  9
$DIMALTTZ
 70
     0
  9
$DIMUPT
 70
     0
  9
$DIMDEC
 70
     4
  9
$DIMTDEC
 70
     4
  9
$DIMALTU
 70
     2
  9
$DIMALTTD
 70
     2
  9
$DIMTXSTY
  7
Standard
  9
$DIMAUNIT
 70
     0
  9
$DIMADEC
 70
     0
  9
$DIMALTRND
 40
0.0
  9
$DIMAZIN
 70
     0
  9
$DIMDSEP
 70
    46
  9
$DIMATFIT
 70
     3
  9
$DIMFRAC
 70
     0
  9
$DIMLDRBLK
  1

  9
$DIMLUNIT
 70
     2
  9
$DIMLWD
 70
    -2
  9
$DIMLWE
 70
    -2
  9
$DIMTMOVE
 70
     0
  9
$DIMFXL
 40
1.0
  9
$DIMFXLON
 70
     0
  9
$DIMJOGANG
 40
0.7853981633974483
  9
$DIMTFILL
 70
     0
  9
$DIMTFILLCLR
 70
     0
  9
$DIMARCSYM
 70
     0
  9
$DIMLTYPE
  6

  9
$DIMLTEX1
  6

  9
$DIMLTEX2
  6

  9
$DIMTXTDIRECTION
 70
     0
  9
$LUNITS
 70
     2
  9
$LUPREC
 70
     4
  9
$SKETCHINC
 40
0.1
  9
$FILLETRAD
 40
0.5
  9
$AUNITS
 70
     0
  9
$AUPREC
 70
     0
  9
$MENU
  1
.
  9
$ELEVATION
 40
0.0
  9
$PELEVATION
 40
0.0
  9
$THICKNESS
 40
0.0
  9
$LIMCHECK
 70
     0
  9
$CHAMFERA
 40
0.0
  9
$CHAMFERB
 40
0.0
  9
$CHAMFERC
 40
0.0
  9
$CHAMFERD
 40
0.0
  9
$SKPOLY
 70
     0
  9
$TDCREATE
 40
2459605.684411759
  9
$TDUCREATE
 40
2459605.601078426
  9
$TDUPDATE
 40
2459842.472415023
  9
$TDUUPDATE
 40
2459842.38908169
  9
$TDINDWG
 40
0.0000000116
  9
$TDUSRTIMER
 40
0.0000000116
  9
$USRTIMER
 70
     1
  9
$ANGBASE
 50
0.0
  9
$ANGDIR
 70
     0
  9
$PDMODE
 70
    65
  9
$PDSIZE
 40
0.0
  9
$PLINEWID
 40
0.0
  9
$SPLFRAME
 70
     0
  9
$SPLINETYPE
 70
     6
  9
$SPLINESEGS
 70
     8
  9
$HANDSEED
  5
11A
  9
$SURFTAB1
 70
     6
  9
$SURFTAB2
 70
     6
  9
$SURFTYPE
 70
     6
  9
$SURFU
 70
     6
  9
$SURFV
 70
     6
  9
$UCSBASE
  2

  9
$UCSNAME
  2

  9
$UCSORG
 10
0.0
 20
0.0
 30
0.0
  9
$UCSXDIR
 10
1.0
 20
0.0
 30
0.0
  9
$UCSYDIR
 10
0.0
 20
1.0
 30
0.0
  9
$UCSORTHOREF
  2

  9
$UCSORTHOVIEW
 70
     0
  9
$UCSORGTOP
 10
0.0
 20
0.0
 30
0.0
  9
$UCSORGBOTTOM
 10
0.0
 20
0.0
 30
0.0
  9
$UCSORGLEFT
 10
0.0
 20
0.0
 30
0.0
  9
$UCSORGRIGHT
 10
0.0
 20
0.0
 30
0.0
  9
$UCSORGFRONT
 10
0.0
 20
0.0
 30
0.0
  9
$UCSORGBACK
 10
0.0
 20
0.0
 30
0.0
  9
$PUCSBASE
  2

  9
$PUCSNAME
  2

  9
$PUCSORG
 10
0.0
 20
0.0
 30
0.0
  9
$PUCSXDIR
 10
1.0
 20
0.0
 30
0.0
  9
$PUCSYDIR
 10
0.0
 20
1.0
 30
0.0
  9
$PUCSORTHOREF
  2

  9
$PUCSORTHOVIEW
 70
     0
  9
$PUCSORGTOP
 10
0.0
 20
0.0
 30
0.0
  9
$PUCSORGBOTTOM
 10
0.0
 20
0.0
 30
0.0
  9
$PUCSORGLEFT
 10
0.0
 20
0.0
 30
0.0
  9
$PUCSORGRIGHT
 10
0.0
 20
0.0
 30
0.0
  9
$PUCSORGFRONT
 10
0.0
 20
0.0
 30
0.0
  9
$PUCSORGBACK
 10
0.0
 20
0.0
 30
0.0
  9
$USERI1
 70
     0
  9
$USERI2
 70
     0
  9
$USERI3
 70
     0
  9
$USERI4
 70
     0
  9
$USERI5
 70
     0
  9
$USERR1
 40
0.0
  9
$USERR2
 40
0.0
  9
$USERR3
 40
0.0
  9
$USERR4
 40
0.0
  9
$USERR5
 40
0.0
  9
$WORLDVIEW
 70
     1
  9
$SHADEDGE
 70
     3
  9
$SHADEDIF
 70
    70
  9
$TILEMODE
 70
     1
  9
$MAXACTVP
 70
    64
  9
$PINSBASE
 10
0.0
 20
0.0
 30
0.0
  9
$PLIMCHECK
 70
     0
  9
$PEXTMIN
 10
1.000000000000000E+20
 20
1.000000000000000E+20
 30
1.000000000000000E+20
  9
$PEXTMAX
 10
-1.000000000000000E+20
 20
-1.000000000000000E+20
 30
-1.000000000000000E+20
  9
$PLIMMIN
 10
0.0
 20
0.0
  9
$PLIMMAX
 10
12.0
 20
9.0
  9
$UNITMODE
 70
     0
  9
$VISRETAIN
 70
     1
  9
$PLINEGEN
 70
     0
  9
$PSLTSCALE
 70
     1
  9
$TREEDEPTH
 70
  3020
  9
$CMLSTYLE
  2
Standard
  9
$CMLJUST
 70
     0
  9
$CMLSCALE
 40
1.0
  9
$PROXYGRAPHICS
 70
     1
  9
$MEASUREMENT
 70
     1
  9
$CELWEIGHT
370
    -1
  9
$ENDCAPS
280
     0
  9
$JOINSTYLE
280
     0
  9
$LWDISPLAY
290
     0
  9
$INSUNITS
 70
     6
  9
$HYPERLINKBASE
  1

  9
$STYLESHEET
  1

  9
$XEDIT
290
     1
  9
$CEPSNTYPE
380
     0
  9
$PSTYLEMODE
290
     1
  9
$FINGERPRINTGUID
  2
{eb805dbd-bfa9-4b98-b3ad-d6ed028c71e0}
  9
$VERSIONGUID
  2
{FAEB1C32-E019-11D5-929B-00C0DF256EC4}
  9
$EXTNAMES
290
     1
  9
$PSVPSCALE
 40
0.0
  9
$OLESTARTUP
290
     0
  9
$SORTENTS
280
   127
  9
$INDEXCTL
280
     0
  9
$HIDETEXT
280
     1
  9
$XCLIPFRAME
280
     2
  9
$HALOGAP
280
     0
  9
$OBSCOLOR
 70
   257
  9
$OBSLTYPE
280
     0
  9
$INTERSECTIONDISPLAY
280
     0
  9
$INTERSECTIONCOLOR
 70
   257
  9
$DIMASSOC
280
     2
  9
$PROJECTNAME
  1

  9
$CAMERADISPLAY
290
     0
  9
$LENSLENGTH
 40
50.0
  9
$CAMERAHEIGHT
 40
0.0
  9
$STEPSPERSEC
 40
2.0
  9
$STEPSIZE
 40
6.0
  9
$3DDWFPREC
 40
2.0
  9
$PSOLWIDTH
 40
0.25
  9
$PSOLHEIGHT
 40
4.0
  9
$LOFTANG1
 40
1.570796326794897
  9
$LOFTANG2
 40
1.570796326794897
  9
$LOFTMAG1
 40
0.0
  9
$LOFTMAG2
 40
0.0
  9
$LOFTPARAM
 70
     7
  9
$LOFTNORMALS
280
     1
  9
$LATITUDE
 40
37.795
  9
$LONGITUDE
 40
-122.394
  9
$NORTHDIRECTION
 40
0.0
  9
$TIMEZONE
 70
 -8000
  9
$LIGHTGLYPHDISPLAY
280
     1
  9
$TILEMODELIGHTSYNCH
280
     1
  9
$CMATERIAL
347
44
  9
$SOLIDHIST
280
     0
  9
$SHOWHIST
280
     1
  9
$DWFFRAME
280
     2
  9
$DGNFRAME
280
     2
  9
$REALWORLDSCALE
290
     1
  9
$INTERFERECOLOR
 62
   256
  9
$CSHADOW
280
     0
  9
$SHADOWPLANELOCATION
 40
0.0
  0
ENDSEC
  0
SECTION
  2
CLASSES
  0
CLASS
  1
ACDBDICTIONARYWDFLT
  2
AcDbDictionaryWithDefault
  3
ObjectDBX Classes
 90
        0
 91
        3
280
     0
281
     0
  0
CLASS
  1
VISUALSTYLE
  2
AcDbVisualStyle
  3
ObjectDBX Classes
 90
     4095
 91
        3
280
     0
281
     0
  0
CLASS
  1
MATERIAL
  2
AcDbMaterial
  3
ObjectDBX Classes
 90
     1153
 91
        3
280
     0
281
     0
  0
CLASS
  1
SCALE
  2
AcDbScale
  3
ObjectDBX Classes
 90
     1153
 91
        3
280
     0
281
     0
  0
CLASS
  1
TABLESTYLE
  2
AcDbTableStyle
  3
ObjectDBX Classes
 90
     4095
 91
        3
280
     0
281
     0
  0
CLASS
  1
MLEADERSTYLE
  2
AcDbMLeaderStyle
  3
ACDB_MLEADERSTYLE_CLASS
 90
     4095
 91
        3
280
     0
281
     0
  0
CLASS
  1
SUN
  2
AcDbSun
  3
SCENEOE
 90
     1153
 91
        3
280
     0
281
     0
  0
CLASS
  1
IMAGEDEF
  2
AcDbRasterImageDef
  3
ISM
 90
        0
 91
        3
280
     0
281
     0
  0
CLASS
  1
RASTERVARIABLES
  2
AcDbRasterVariables
  3
ISM
 90
        0
 91
        3
280
     0
281
     0
  0
CLASS
  1
IMAGE
  2
AcDbRasterImage
  3
ISM
 90
      127
 91
        4
280
     0
281
     1
  0
CLASS
  1
IMAGEDEF_REACTOR
  2
AcDbRasterImageDefReactor
  3
ISM
 90
        1
 91
        3
280
     0
281
     0
  0
CLASS
  1
SORTENTSTABLE
  2
AcDbSortentsTable
  3
ObjectDBX Classes
 90
        0
 91
        3
280
     0
281
     0
  0
CLASS
  1
DICTIONARYVAR
  2
AcDbDictionaryVar
  3
ObjectDBX Classes
 90
        0
 91
        3
280
     0
281
     0
  0
CLASS
  1
CELLSTYLEMAP
  2
AcDbCellStyleMap
  3
ObjectDBX Classes
 90
     1152
 91
        3
280
     0
281
     0
  0
ENDSEC
  0
SECTION
  2
TABLES
  0
TABLE
  2
VPORT
  5
8
330
0
100
AcDbSymbolTable
 70
     1
  0
VPORT
  5
29
330
8
100
AcDbSymbolTableRecord
100
AcDbViewportTableRecord
  2
*Active
 70
     0
 10
0.0
 20
0.0
 11
1.0
 21
1.0
 12
-8561.927008257091
 22
-3277.75402039847
 13
0.0
 23
0.0
 14
0.5
 24
0.5
 15
0.5
 25
0.5
 16
0.0
 26
0.0
 36
1.0
 17
0.0
 27
0.0
 37
0.0
 40
0.3015626400003384
 41
2.101056974447613
 42
50.0
 43
0.0
 44
0.0
 50
0.0
 51
0.0
 71
     0
 72
   100
 73
     1
 74
     3
 75
     0
 76
     0
 77
     0
 78
     0
281
     0
 65
     1
110
0.0
120
0.0
130
0.0
111
1.0
121
0.0
131
0.0
112
0.0
122
1.0
132
0.0
 79
     0
146
0.0
348
2F
 60
     3
 61
     5
292
     1
282
     1
141
0.0
142
0.0
 63
   250
361
6D
  0
ENDTAB
  0
TABLE
  2
LTYPE
  5
5
330
0
100
AcDbSymbolTable
 70
     2
  0
LTYPE
  5
14
330
5
100
AcDbSymbolTableRecord
100
AcDbLinetypeTableRecord
  2
ByBlock
 70
     0
  3

 72
    65
 73
     0
 40
0.0
  0
LTYPE
  5
15
330
5
100
AcDbSymbolTableRecord
100
AcDbLinetypeTableRecord
  2
ByLayer
 70
     0
  3

 72
    65
 73
     0
 40
0.0
  0
LTYPE
  5
16
330
5
100
AcDbSymbolTableRecord
100
AcDbLinetypeTableRecord
  2
Continuous
 70
     0
  3
Solid line
 72
    65
 73
     0
 40
0.0
  0
LTYPE
  5
6E
330
5
100
AcDbSymbolTableRecord
100
AcDbLinetypeTableRecord
  2
AUSGEZOGEN
 70
     0
  3
durchgezogene Linie
 72
    65
 73
     0
 40
0.0
  0
ENDTAB
  0
TABLE
  2
LAYER
  5
2
330
0
100
AcDbSymbolTable
 70
     5
  0
LAYER
  5
10
330
2
100
AcDbSymbolTableRecord
100
AcDbLayerTableRecord
  2
0
 70
     0
 62
     7
  6
Continuous
370
    -3
390
F
347
46
348
0
  0
LAYER
  5
71
330
2
100
AcDbSymbolTableRecord
100
AcDbLayerTableRecord
  2
Gebaeudeuebersicht
 70
     0
 62
     7
  6
AUSGEZOGEN
370
    70
390
F
347
46
348
0
1001
AcCmTransparency
1071
 33554687
1001
AcAecLayerStandard
1000

1000
PRLGUE01, an
  0
LAYER
  5
73
330
2
100
AcDbSymbolTableRecord
100
AcDbLayerTableRecord
  2
Plankopf
 70
     0
 62
     7
  6
AUSGEZOGEN
370
    50
390
F
347
46
348
0
1001
AcCmTransparency
1071
 33554687
1001
AcAecLayerStandard
1000

1000
PRLPLK01, an
  0
LAYER
  5
74
330
2
100
AcDbSymbolTableRecord
100
AcDbLayerTableRecord
  2
STANDARD
 70
     0
 62
     7
  6
AUSGEZOGEN
370
    25
390
F
347
46
348
0
1001
AcCmTransparency
1071
 33554687
1001
AcAecLayerStandard
1000

1000
STANDARD
  0
LAYER
  5
75
330
2
100
AcDbSymbolTableRecord
100
AcDbLayerTableRecord
  2
Text
 70
     0
 62
     7
  6
AUSGEZOGEN
370
    50
390
F
347
46
348
0
1001
AcCmTransparency
1071
 33554687
1001
AcAecLayerStandard
1000

1000
PRLTXT01, an
  0
ENDTAB
  0
TABLE
  2
STYLE
  5
3
330
0
100
AcDbSymbolTable
 70
     2
  0
STYLE
  5
11
330
3
100
AcDbSymbolTableRecord
100
AcDbTextStyleTableRecord
  2
Standard
 70
     0
 40
0.0
 41
1.0
 50
0.0
 71
     0
 42
0.2
  3
txt
  4

  0
STYLE
  5
6F
330
3
100
AcDbSymbolTableRecord
100
AcDbTextStyleTableRecord
  2
ARIAL
 70
     0
 40
0.0
 41
1.0
 50
0.0
 71
     0
 42
0.2
  3
ARIAL.TTF
  4

1001
ACAD
1000
Arial
1071
       34
  0
ENDTAB
  0
TABLE
  2
VIEW
  5
6
330
0
100
AcDbSymbolTable
 70
     0
  0
ENDTAB
  0
TABLE
  2
UCS
  5
7
330
0
100
AcDbSymbolTable
 70
     0
  0
ENDTAB
  0
TABLE
  2
APPID
  5
9
330
0
100
AcDbSymbolTable
 70
     3
  0
APPID
  5
12
330
9
100
AcDbSymbolTableRecord
100
AcDbRegAppTableRecord
  2
ACAD
 70
     0
  0
APPID
  5
70
330
9
100
AcDbSymbolTableRecord
100
AcDbRegAppTableRecord
  2
AcCmTransparency
 70
     0
  0
APPID
  5
72
330
9
100
AcDbSymbolTableRecord
100
AcDbRegAppTableRecord
  2
AcAecLayerStandard
 70
     0
  0
ENDTAB
  0
TABLE
  2
DIMSTYLE
  5
A
330
0
100
AcDbSymbolTable
 70
     1
100
AcDbDimStyleTable
  0
DIMSTYLE
105
27
330
A
100
AcDbSymbolTableRecord
100
AcDbDimStyleTableRecord
  2
Standard
 70
     0
178
     0
340
11
  0
ENDTAB
  0
TABLE
  2
BLOCK_RECORD
  5
1
330
0
100
AcDbSymbolTable
 70
     2
  0
BLOCK_RECORD
  5
1F
102
{ACAD_XDICTIONARY
360
10F
102
}
330
1
100
AcDbSymbolTableRecord
100
AcDbBlockTableRecord
  2
*Model_Space
340
22
 70
     0
280
     1
281
     0
  0
BLOCK_RECORD
  5
1B
330
1
100
AcDbSymbolTableRecord
100
AcDbBlockTableRecord
  2
*Paper_Space
340
1E
 70
     0
280
     1
281
     0
  0
BLOCK_RECORD
  5
23
330
1
100
AcDbSymbolTableRecord
100
AcDbBlockTableRecord
  2
*Paper_Space0
340
26
 70
     0
280
     1
281
     0
  0
BLOCK_RECORD
  5
76
330
1
100
AcDbSymbolTableRecord
100
AcDbBlockTableRecord
  2
NSY100
340
0
102
{BLKREFS
331
B9
102
}
 70
     6
280
     1
281
     0
  0
ENDTAB
  0
ENDSEC
  0
SECTION
  2
BLOCKS
  0
BLOCK
  5
20
330
1F
100
AcDbEntity
  8
0
100
AcDbBlockBegin
  2
*Model_Space
 70
     0
 10
0.0
 20
0.0
 30
0.0
  3
*Model_Space
  1

  0
ENDBLK
  5
21
330
1F
100
AcDbEntity
  8
0
100
AcDbBlockEnd
  0
BLOCK
  5
1C
330
1B
100
AcDbEntity
 67
     1
  8
0
100
AcDbBlockBegin
  2
*Paper_Space
 70
     0
 10
0.0
 20
0.0
 30
0.0
  3
*Paper_Space
  1

  0
ENDBLK
  5
1D
330
1B
100
AcDbEntity
 67
     1
  8
0
100
AcDbBlockEnd
  0
BLOCK
  5
24
330
23
100
AcDbEntity
  8
0
100
AcDbBlockBegin
  2
*Paper_Space0
 70
     0
 10
0.0
 20
0.0
 30
0.0
  3
*Paper_Space0
  1

  0
ENDBLK
  5
25
330
23
100
AcDbEntity
  8
0
100
AcDbBlockEnd
  0
BLOCK
  5
77
330
76
100
AcDbEntity
  8
0
100
AcDbBlockBegin
  2
NSY100
 70
     0
 10
0.0
 20
0.0
 30
0.0
  3
NSY100
  1

  0
LINE
  5
79
330
76
100
AcDbEntity
  8
0
  6
ByBlock
 62
     0
370
    -2
100
AcDbLine
 10
-0.0005
 20
0.0
 30
0.0
 11
0.0005
 21
0.0
 31
0.0
  0
LINE
  5
7A
330
76
100
AcDbEntity
  8
0
  6
ByBlock
 62
     0
370
    -2
100
AcDbLine
 10
0.0
 20
0.0005
 30
0.0
 11
0.0
 21
-0.0005
 31
0.0
  0
ENDBLK
  5
78
330
76
100
AcDbEntity
  8
0
100
AcDbBlockEnd
  0
ENDSEC
  0
SECTION
  2
ENTITIES
  0
LINE
  5
7B
330
1F
100
AcDbEntity
  8
Plankopf
  6
AUSGEZOGEN
 62
     7
440
 33554687
370
    25
100
AcDbLine
 10
-8561.962008257091
 20
-3277.64536939847
 30
0.0
 11
-8562.10200825709
 21
-3277.64536939847
 31
0.0
  0
LINE
  5
7C
330
1F
100
AcDbEntity
  8
Plankopf
  6
AUSGEZOGEN
 62
     7
440
 33554687
370
    25
100
AcDbLine
 10
-8561.962008257091
 20
-3277.64936939847
 30
0.0
 11
-8562.10200825709
 21
-3277.64936939847
 31
0.0
  0
LINE
  5
7D
330
1F
100
AcDbEntity
  8
Plankopf
  6
AUSGEZOGEN
 62
     7
440
 33554687
370
    25
100
AcDbLine
 10
-8561.962008257091
 20
-3277.65336939847
 30
0.0
 11
-8562.10200825709
 21
-3277.65336939847
 31
0.0
  0
LINE
  5
7E
330
1F
100
AcDbEntity
  8
Plankopf
  6
AUSGEZOGEN
 62
     7
440
 33554687
370
    25
100
AcDbLine
 10
-8561.962008257091
 20
-3277.65736939847
 30
0.0
 11
-8562.10200825709
 21
-3277.65736939847
 31
0.0
  0
LINE
  5
7F
330
1F
100
AcDbEntity
  8
Plankopf
  6
AUSGEZOGEN
 62
     7
440
 33554687
370
    25
100
AcDbLine
 10
-8561.962008257091
 20
-3277.66136939847
 30
0.0
 11
-8562.10200825709
 21
-3277.66136939847
 31
0.0
  0
LINE
  5
80
330
1F
100
AcDbEntity
  8
Plankopf
  6
AUSGEZOGEN
 62
     7
440
 33554687
370
    25
100
AcDbLine
 10
-8561.962008257091
 20
-3277.66536939847
 30
0.0
 11
-8562.10200825709
 21
-3277.66536939847
 31
0.0
  0
LINE
  5
81
330
1F
100
AcDbEntity
  8
Plankopf
  6
AUSGEZOGEN
 62
     7
440
 33554687
370
    25
100
AcDbLine
 10
-8561.962008257091
 20
-3277.66936939847
 30
0.0
 11
-8562.10200825709
 21
-3277.66936939847
 31
0.0
  0
LINE
  5
82
330
1F
100
AcDbEntity
  8
Plankopf
  6
AUSGEZOGEN
 62
     7
440
 33554687
370
    25
100
AcDbLine
 10
-8561.962008257091
 20
-3277.67336939847
 30
0.0
 11
-8562.10200825709
 21
-3277.67336939847
 31
0.0
  0
LINE
  5
83
330
1F
100
AcDbEntity
  8
Plankopf
  6
AUSGEZOGEN
 62
     7
440
 33554687
370
    25
100
AcDbLine
 10
-8561.962008257091
 20
-3277.67736939847
 30
0.0
 11
-8562.10200825709
 21
-3277.67736939847
 31
0.0
  0
LINE
  5
84
330
1F
100
AcDbEntity
  8
Plankopf
  6
AUSGEZOGEN
 62
     7
440
 33554687
370
    25
100
AcDbLine
 10
-8562.053674257093
 20
-3277.86667139847
 30
0.0
 11
-8562.053674257093
 21
-3277.879671398471
 31
0.0
  0
LINE
  5
85
330
1F
100
AcDbEntity
  8
Plankopf
  6
AUSGEZOGEN
 62
     7
440
 33554687
370
    25
100
AcDbLine
 10
-8562.005341257092
 20
-3277.86667139847
 30
0.0
 11
-8562.005341257092
 21
-3277.879671398471
 31
0.0
  0
LINE
  5
86
330
1F
100
AcDbEntity
  8
Plankopf
  6
AUSGEZOGEN
 62
     7
440
 33554687
370
    25
100
AcDbLine
 10
-8562.031418257091
 20
-3277.86667139847
 30
0.0
 11
-8562.031418257091
 21
-3277.850671398471
 31
0.0
  0
LINE
  5
87
330
1F
100
AcDbEntity
  8
Gebaeudeuebersicht
  6
AUSGEZOGEN
 62
     7
440
 33554687
370
    25
100
AcDbLine
 10
-8562.129896176788
 20
-3277.662524847982
 30
0.0
 11
-8562.114269642258
 21
-3277.662524847982
 31
0.0
  0
LINE
  5
88
330
1F
100
AcDbEntity
  8
Gebaeudeuebersicht
  6
AUSGEZOGEN
 62
     7
440
 33554687
370
    25
100
AcDbLine
 10
-8562.114269642258
 20
-3277.662524847982
 30
0.0
 11
-8562.114269642258
 21
-3277.653694469003
 31
0.0
  0
LINE
  5
89
330
1F
100
AcDbEntity
  8
Gebaeudeuebersicht
  6
AUSGEZOGEN
 62
     7
440
 33554687
370
    25
100
AcDbLine
 10
-8562.114269642258
 20
-3277.653694469003
 30
0.0
 11
-8562.129896176788
 21
-3277.653694469003
 31
0.0
  0
LINE
  5
8A
330
1F
100
AcDbEntity
  8
Gebaeudeuebersicht
  6
AUSGEZOGEN
 62
     7
440
 33554687
370
    25
100
AcDbLine
 10
-8562.129896176788
 20
-3277.653694469003
 30
0.0
 11
-8562.129896176788
 21
-3277.662524847982
 31
0.0
  0
LINE
  5
8B
330
1F
100
AcDbEntity
  8
Gebaeudeuebersicht
  6
AUSGEZOGEN
 62
     7
440
 33554687
370
    25
100
AcDbLine
 10
-8562.114269642258
 20
-3277.653694469003
 30
0.0
 11
-8562.106687536747
 21
-3277.653694469003
 31
0.0
  0
LINE
  5
8C
330
1F
100
AcDbEntity
  8
Gebaeudeuebersicht
  6
AUSGEZOGEN
 62
     7
440
 33554687
370
    25
100
AcDbLine
 10
-8562.106687536747
 20
-3277.653694469003
 30
0.0
 11
-8562.106687536747
 21
-3277.675839764977
 31
0.0
  0
LINE
  5
8D
330
1F
100
AcDbEntity
  8
Gebaeudeuebersicht
  6
AUSGEZOGEN
 62
     7
440
 33554687
370
    25
100
AcDbLine
 10
-8562.106687536747
 20
-3277.675839764977
 30
0.0
 11
-8562.114269642258
 21
-3277.675839764977
 31
0.0
  0
LINE
  5
8E
330
1F
100
AcDbEntity
  8
Gebaeudeuebersicht
  6
AUSGEZOGEN
 62
     7
440
 33554687
370
    25
100
AcDbLine
 10
-8562.114269642258
 20
-3277.675839764977
 30
0.0
 11
-8562.114269642258
 21
-3277.653694469003
 31
0.0
  0
CIRCLE
  5
8F
330
1F
100
AcDbEntity
  8
Gebaeudeuebersicht
  6
AUSGEZOGEN
 62
     7
440
 33554687
370
    25
100
AcDbCircle
 10
-8562.131745470813
 20
-3277.671355226962
 30
0.0
 40
0.0057456601183292
  0
HATCH
  5
90
330
1F
100
AcDbEntity
  8
Gebaeudeuebersicht
  6
AUSGEZOGEN
 62
   253
440
 33554687
370
    25
100
AcDbHatch
 10
0.0
 20
0.0
 30
0.0
210
0.0
220
0.0
230
1.0
  2
SOLID
 70
     1
 71
     0
 91
        1
 92
        3
 72
     0
 73
     1
 93
        4
 10
-8562.129896176788
 20
-3277.662524847982
 10
-8562.114269642258
 20
-3277.662524847982
 10
-8562.114269642258
 20
-3277.653694469003
 10
-8562.129896176788
 20
-3277.653694469003
 97
        0
 75
     0
 76
     1
 98
        0
  0
HATCH
  5
91
330
1F
100
AcDbEntity
  8
Gebaeudeuebersicht
  6
AUSGEZOGEN
 62
   253
440
 33554687
370
    25
100
AcDbHatch
 10
0.0
 20
0.0
 30
0.0
210
0.0
220
0.0
230
1.0
  2
SOLID
 70
     1
 71
     0
 91
        1
 92
        3
 72
     0
 73
     1
 93
        7
 10
-8562.137468724784
 20
-3277.651044731164
 10
-8562.137482513499
 20
-3277.651169731162
 10
-8562.136019028068
 20
-3277.651169731162
 10
-8562.136032816783
 20
-3277.651044731164
 10
-8562.136750770784
 20
-3277.644536202477
 10
-8562.136788498246
 20
-3277.644878216422
 10
-8562.13610827171
 20
-3277.651044731164
 97
        0
 75
     0
 76
     1
 98
        0
  0
LINE
  5
92
330
1F
100
AcDbEntity
  8
Gebaeudeuebersicht
  6
AUSGEZOGEN
 62
     7
440
 33554687
370
    13
100
AcDbLine
 10
-8562.13610827171
 20
-3277.651044731164
 30
0.0
 11
-8562.13610827171
 21
-3277.651044731164
 31
0.0
  0
LINE
  5
93
330
1F
100
AcDbEntity
  8
Gebaeudeuebersicht
  6
AUSGEZOGEN
 62
     7
440
 33554687
370
    13
100
AcDbLine
 10
-8562.137594482996
 20
-3277.651044731164
 30
0.0
 11
-8562.13610827171
 21
-3277.651044731164
 31
0.0
  0
LINE
  5
94
330
1F
100
AcDbEntity
  8
Gebaeudeuebersicht
  6
AUSGEZOGEN
 62
     7
440
 33554687
370
    13
100
AcDbLine
 10
-8562.137468724784
 20
-3277.651044731164
 30
0.0
 11
-8562.137470236643
 21
-3277.651058436745
 31
0.0
  0
LINE
  5
95
330
1F
100
AcDbEntity
  8
Gebaeudeuebersicht
  6
AUSGEZOGEN
 62
     7
440
 33554687
370
    13
100
AcDbLine
 10
-8562.136750770784
 20
-3277.644536202477
 30
0.0
 11
-8562.136788498246
 21
-3277.644878216422
 31
0.0
  0
LINE
  5
96
330
1F
100
AcDbEntity
  8
Gebaeudeuebersicht
  6
AUSGEZOGEN
 62
     7
440
 33554687
370
    13
100
AcDbLine
 10
-8562.136019028068
 20
-3277.651169731162
 30
0.0
 11
-8562.136750770784
 21
-3277.644536202477
 31
0.0
  0
LINE
  5
97
330
1F
100
AcDbEntity
  8
Gebaeudeuebersicht
  6
AUSGEZOGEN
 62
     7
440
 33554687
370
    13
100
AcDbLine
 10
-8562.136851377354
 20
-3277.64430819318
 30
0.0
 11
-8562.137594482996
 21
-3277.651044731164
 31
0.0
  0
LINE
  5
98
330
1F
100
AcDbEntity
  8
Gebaeudeuebersicht
  6
AUSGEZOGEN
 62
     7
440
 33554687
370
    13
100
AcDbLine
 10
-8562.13610827171
 20
-3277.651044731164
 30
0.0
 11
-8562.136851377354
 21
-3277.64430819318
 31
0.0
  0
LINE
  5
99
330
1F
100
AcDbEntity
  8
Gebaeudeuebersicht
  6
AUSGEZOGEN
 62
     7
440
 33554687
370
    13
100
AcDbLine
 10
-8562.137482513499
 20
-3277.651169731162
 30
0.0
 11
-8562.136019028068
 21
-3277.651169731162
 31
0.0
  0
LINE
  5
9A
330
1F
100
AcDbEntity
  8
Gebaeudeuebersicht
  6
AUSGEZOGEN
 62
     7
440
 33554687
370
    13
100
AcDbLine
 10
-8562.137468724784
 20
-3277.651044731164
 30
0.0
 11
-8562.137482513499
 21
-3277.651169731162
 31
0.0
  0
MTEXT
  5
9B
330
1F
100
AcDbEntity
  8
Text
  6
AUSGEZOGEN
 62
     7
440
 33554687
370
    18
100
AcDbMText
 10
-8562.129683157897
 20
-3277.648268199578
 30
0.0
 40
0.002
 41
0.023972212492839
 46
0.0
 71
     7
 72
     5
  1
\W1.01;Gebäudeübersicht
  7
ARIAL
 73
     1
 44
1.0
  0
MTEXT
  5
9C
330
1F
100
AcDbEntity
  8
Text
  6
AUSGEZOGEN
 62
     7
440
 33554687
370
    18
100
AcDbMText
 10
-8562.100908257089
 20
-3277.680633398469
 30
0.0
 40
0.002
 41
0.0078679303982932
 46
0.0
 71
     7
 72
     5
  1
\W1.00;Index
  7
ARIAL
 73
     1
 44
1.0
  0
MTEXT
  5
9D
330
1F
100
AcDbEntity
  8
Text
  6
AUSGEZOGEN
 62
     7
440
 33554687
370
    18
100
AcDbMText
 10
-8562.09169125709
 20
-3277.680633398469
 30
0.0
 40
0.002
 41
0.0092684440145072
 46
0.0
 71
     7
 72
     5
  1
\W1.00;Datum
  7
ARIAL
 73
     1
 44
1.0
  0
MTEXT
  5
9E
330
1F
100
AcDbEntity
  8
Text
  6
AUSGEZOGEN
 62
     7
440
 33554687
370
    18
100
AcDbMText
 10
-8562.072941257093
 20
-3277.68062139847
 30
0.0
 40
0.002
 41
0.0139712116518366
 46
0.0
 71
     7
 72
     5
  1
\W1.00;Bearbeiter
  7
ARIAL
 73
     1
 44
1.0
  0
MTEXT
  5
9F
330
1F
100
AcDbEntity
  8
Gebaeudeuebersicht
  6
AUSGEZOGEN
 62
     7
440
 33554687
370
    18
100
AcDbMText
 10
-8562.131745470813
 20
-3277.671355226962
 30
0.0
 40
0.002
 41
0.0028532769568513
 46
0.0
 71
     7
 72
     5
  1
\W0.99;A
  7
ARIAL
 73
     1
 44
1.0
  0
MTEXT
  5
A0
330
1F
100
AcDbEntity
  8
Gebaeudeuebersicht
  6
AUSGEZOGEN
 62
     7
440
 33554687
370
    18
100
AcDbMText
 10
-8562.123037097499
 20
-3277.659009307291
 30
0.0
 40
0.002
 41
0.0028532769568513
 46
0.0
 71
     7
 72
     5
  1
\W0.99;B
  7
ARIAL
 73
     1
 44
1.0
  0
MTEXT
  5
A1
330
1F
100
AcDbEntity
  8
Gebaeudeuebersicht
  6
AUSGEZOGEN
 62
     7
440
 33554687
370
    18
100
AcDbMText
 10
-8562.111020483246
 20
-3277.66464838884
 30
0.0
 40
0.002
 41
0.0030271423914302
 46
0.0
 71
     7
 72
     5
  1
\W0.99;C
  7
ARIAL
 73
     1
 44
1.0
  0
MTEXT
  5
A2
330
1F
100
AcDbEntity
  8
Text
  6
AUSGEZOGEN
 62
     7
440
 33554687
370
    25
100
AcDbMText
 10
-8562.052099225519
 20
-3277.869923128002
 30
0.0
 40
0.0025
 41
0.0178377458402765
 46
0.0
 71
     7
 72
     5
  1
\W1.00;bearbeitet:
  7
ARIAL
 73
     1
 44
1.0
  0
MTEXT
  5
A3
330
1F
100
AcDbEntity
  8
Text
  6
AUSGEZOGEN
 62
     7
440
 33554687
370
    25
100
AcDbMText
 10
-8562.00385222552
 20
-3277.869916128001
 30
0.0
 40
0.0025
 41
0.0131255265373796
 46
0.0
 71
     7
 72
     5
  1
\W1.00;geprüft:
  7
ARIAL
 73
     1
 44
1.0
  0
MTEXT
  5
A4
330
1F
100
AcDbEntity
  8
Text
  6
AUSGEZOGEN
 62
     7
440
 33554687
370
    13
100
AcDbMText
 10
-8562.100685723057
 20
-3277.878708912057
 30
0.0
 40
0.001
 41
0.0099174999105752
 46
0.0
 71
     7
 72
     5
  1
\W1.00;[Datum, Name]
  7
ARIAL
 73
     1
 44
1.0
  0
MTEXT
  5
A5
330
1F
100
AcDbEntity
  8
Text
  6
AUSGEZOGEN
 62
     7
440
 33554687
370
    13
100
AcDbMText
 10
-8562.052351723058
 20
-3277.878708912057
 30
0.0
 40
0.001
 41
0.0099174999105752
 46
0.0
 71
     7
 72
     5
  1
\W1.00;[Datum, Name]
  7
ARIAL
 73
     1
 44
1.0
  0
MTEXT
  5
A6
330
1F
100
AcDbEntity
  8
Text
  6
AUSGEZOGEN
 62
     7
440
 33554687
370
    13
100
AcDbMText
 10
-8562.004018723057
 20
-3277.878708912057
 30
0.0
 40
0.001
 41
0.0099174999105752
 46
0.0
 71
     7
 72
     5
  1
\W1.00;[Datum, Name]
  7
ARIAL
 73
     1
 44
1.0
  0
LINE
  5
A7
330
1F
100
AcDbEntity
  8
Plankopf
  6
AUSGEZOGEN
 62
     7
440
 33554687
370
    25
100
AcDbLine
 10
-8562.14700825709
 20
-3277.818671398471
 30
0.0
 11
-8561.962008257091
 21
-3277.818671398471
 31
0.0
  0
LINE
  5
A8
330
1F
100
AcDbEntity
  8
Plankopf
  6
AUSGEZOGEN
 62
     7
440
 33554687
370
    25
100
AcDbLine
 10
-8562.14700825709
 20
-3277.834671398471
 30
0.0
 11
-8561.962008257091
 21
-3277.834671398471
 31
0.0
  0
LINE
  5
A9
330
1F
100
AcDbEntity
  8
Plankopf
  6
AUSGEZOGEN
 62
     7
440
 33554687
370
    25
100
AcDbLine
 10
-8562.14700825709
 20
-3277.850671398471
 30
0.0
 11
-8561.962008257091
 21
-3277.850671398471
 31
0.0
  0
LINE
  5
AA
330
1F
100
AcDbEntity
  8
Plankopf
  6
AUSGEZOGEN
 62
     7
440
 33554687
370
    25
100
AcDbLine
 10
-8562.14700825709
 20
-3277.866671398471
 30
0.0
 11
-8561.962008257091
 21
-3277.866671398471
 31
0.0
  0
MTEXT
  5
AB
330
1F
100
AcDbEntity
  8
Text
  6
AUSGEZOGEN
 62
     7
440
 33554687
370
    35
100
AcDbMText
 10
-8562.145833257091
 20
-3277.82457139847
 30
0.0
 40
0.0035
 41
0.0383930284684801
 46
0.0
 71
     7
 72
     5
  1
\W1.01;Tragwerksplaner
  7
ARIAL
 73
     1
 44
1.0
  0
MTEXT
  5
AC
330
1F
100
AcDbEntity
  8
Text
  6
AUSGEZOGEN
 62
     7
440
 33554687
370
    35
100
AcDbMText
 10
-8562.145833257093
 20
-3277.80856839847
 30
0.0
 40
0.0035
 41
0.0357116230794407
 46
0.0
 71
     7
 72
     5
  1
\W1.01;Gebäudeplaner
  7
ARIAL
 73
     1
 44
1.0
  0
IMAGE
  5
B0
330
1F
100
AcDbEntity
  8
Text
  6
AUSGEZOGEN
 62
     7
440
 33554687
370
    35
160
               140
310
8C000000010000008400000006000000050000003AE7600412B9C0C05ADFF5A5949BA9C000000000000000004BD4E2E80DB9C0C05ADFF5A5949BA9C000000000000000004BD4E2E80DB9C0C018AC759F8B9BA9C000000000000000003AE7600412B9C0C018AC759F8B9BA9C000000000000000003AE7600412B9C0C05ADFF5
310
A5949BA9C00000000000000000
100
AcDbRasterImage
 90
        0
 10
-8562.140758622078
 20
-3277.790328677669
 30
0.0
 11
5.975605921344606E-5
 21
0.0
 31
0.0
 12
7.317875716338634E-21
 22
5.975498994023113E-5
 32
0.0
 13
537.0
 23
295.0
340
AE
 70
     7
280
     1
281
    50
282
    50
283
     0
360
B1
 71
     2
 91
        5
 14
-0.4999999701976776
 24
294.4999999925494
 14
536.5
 24
294.4999999925494
 14
536.5
 24
-0.5
 14
-0.4999999701976776
 24
-0.5
 14
-0.4999999701976776
 24
294.4999999925494
290
     0
  0
MTEXT
  5
B2
330
1F
100
AcDbEntity
  8
Text
  6
AUSGEZOGEN
 62
     7
440
 33554687
370
    35
100
AcDbMText
 10
-8562.145833257095
 20
-3277.718310636229
 30
0.0
 40
0.0035
 41
0.0357116230814
 46
0.0
 71
     7
 72
     5
  1
\W1.01;Planungsphase
  7
ARIAL
 73
     1
 44
1.0
  0
MTEXT
  5
B3
330
1F
100
AcDbEntity
  8
Text
  6
AUSGEZOGEN
 62
     7
440
 33554687
370
    35
100
AcDbMText
 10
-8562.145833257091
 20
-3277.73138667055
 30
0.0
 40
0.0035
 41
0.0395627308346341
 46
0.0
 71
     7
 72
     5
  1
\W1.01;Planbezeichnung
  7
ARIAL
 73
     1
 44
1.0
  0
MTEXT
  5
B4
330
1F
100
AcDbEntity
  8
Text
  6
AUSGEZOGEN
 62
     7
440
 33554687
370
    35
100
AcDbMText
 10
-8562.145833257091
 20
-3277.837179908301
 30
0.0
 40
0.0035
 41
0.0441184118244047
 46
0.0
 71
     1
 72
     5
  1
\A1;{\fArial|i0|b0;\H0.003500;\W0.952381;\C7;Technische}\P{\fArial|i0|b0;\H0.003500;\W0.952381;\C7;Gebäudeausrüstung}\P
  7
ARIAL
 73
     1
 44
1.204819277108434
  0
MTEXT
  5
B5
330
1F
100
AcDbEntity
  8
Text
  6
AUSGEZOGEN
 62
     7
440
 33554687
370
    25
100
AcDbMText
 10
-8562.100828257093
 20
-3277.742410252586
 30
0.0
 40
0.0025
 41
0.0158334047665394
 46
0.0
 71
     7
 72
     5
  1
\W1.00;Maßstab:
  7
ARIAL
 73
     1
 44
1.0
  0
LINE
  5
B6
330
1F
100
AcDbEntity
  8
Plankopf
  6
AUSGEZOGEN
 62
     7
440
 33554687
370
    25
100
AcDbLine
 10
-8562.147008257092
 20
-3277.749869398475
 30
0.0
 11
-8561.962008257093
 21
-3277.749869398475
 31
0.0
  0
MTEXT
  5
B7
330
1F
100
AcDbEntity
  8
Text
  6
AUSGEZOGEN
 62
     7
440
 33554687
370
    35
100
AcDbMText
 10
-8562.145829279505
 20
-3277.755089453068
 30
0.0
 40
0.0035
 41
0.012136090479047
 46
0.0
 71
     7
 72
     5
  1
\W1.00;CAD
  7
ARIAL
 73
     1
 44
1.0
  0
MTEXT
  5
B8
330
1F
100
AcDbEntity
  8
Text
  6
AUSGEZOGEN
 62
     7
440
 33554687
370
    25
100
AcDbMText
 10
-8562.100749279507
 20
-3277.753574588174
 30
0.0
 40
0.0025
 41
0.0219210164272362
 46
0.0
 71
     7
 72
     5
  1
\W1.00;Projektname:
  7
ARIAL
 73
     1
 44
1.0
  0
INSERT
  5
B9
330
1F
100
AcDbEntity
  8
STANDARD
  6
AUSGEZOGEN
 62
     7
440
 33554687
370
    25
100
AcDbBlockReference
  2
NSY100
 10
-8562.102008257094
 20
-3277.749869398475
 30
0.0
 41
3.0
 42
3.0
 43
3.0
 50
270.0
  0
MTEXT
  5
BA
330
1F
100
AcDbEntity
  8
Text
  6
AUSGEZOGEN
 62
     7
440
 33554687
370
    25
100
AcDbMText
 10
-8562.065801511564
 20
-3277.742452200257
 30
0.0
 40
0.0025
 41
0.0183764615609144
 46
0.0
 71
     7
 72
     5
  1
\W1.00;Blattgröße:
  7
ARIAL
 73
     1
 44
1.0
  0
MTEXT
  5
BB
330
1F
100
AcDbEntity
  8
Text
  6
AUSGEZOGEN
 62
     7
440
 33554687
370
    25
100
AcDbMText
 10
-8562.03090825709
 20
-3277.742410252586
 30
0.0
 40
0.0025
 41
0.0187507146940949
 46
0.0
 71
     7
 72
     5
  1
\W1.00;Erstellt am:
  7
ARIAL
 73
     1
 44
1.0
  0
MTEXT
  5
BC
330
1F
100
AcDbEntity
  8
Text
  6
AUSGEZOGEN
 62
     7
440
 33554687
370
    25
100
AcDbMText
 10
-8561.98590825709
 20
-3277.742410252586
 30
0.0
 40
0.0025
 41
0.0107915575051339
 46
0.0
 71
     7
 72
     5
  1
\W1.00;Index:
  7
ARIAL
 73
     1
 44
1.0
  0
MTEXT
  5
BD
330
1F
100
AcDbEntity
  8
Text
  6
AUSGEZOGEN
 62
     7
440
 33554687
370
    35
100
AcDbMText
 10
-8562.09715288476
 20
-3277.731484258314
 30
0.0
 40
0.0035
 41
0.0284082567481911
 46
0.0
 71
     7
 72
     5
  1
\W1.00;Grundriss ...
  7
ARIAL
 73
     1
 44
1.0
  0
MTEXT
  5
BE
330
1F
100
AcDbEntity
  8
Text
  6
AUSGEZOGEN
 62
     7
440
 33554687
370
    35
100
AcDbMText
 10
-8562.097242308451
 20
-3277.692023618798
 30
0.0
 40
0.003
 41
0.0208493026494435
 46
0.0
 71
     1
 72
     5
  1
\A1;{\fArial|i0|b0;\H0.003000;\W1.000000;\C7;Straße Nr.}\P{\fArial|i0|b0;\H0.003000;\W1.000000;\C7;Plz. Ort}\P
  7
ARIAL
 73
     1
 44
1.024096385542169
  0
MTEXT
  5
BF
330
1F
100
AcDbEntity
  8
Text
  6
AUSGEZOGEN
 62
     7
440
 33554687
370
    35
100
AcDbMText
 10
-8562.14584225709
 20
-3277.688535398469
 30
0.0
 40
0.0035
 41
0.0353578738094733
 46
0.0
 71
     7
 72
     5
  1
\W1.00;Baumaßnahme
  7
ARIAL
 73
     1
 44
1.0
  0
MTEXT
  5
C0
330
1F
100
AcDbEntity
  8
Text
  6
AUSGEZOGEN
 62
     7
440
 33554687
370
    35
100
AcDbMText
 10
-8562.097302987208
 20
-3277.688626764085
 30
0.0
 40
0.0035
 41
0.0498250317020533
 46
0.0
 71
     7
 72
     5
  1
\W1.00;Musterbaumaßnahme
  7
ARIAL
 73
     1
 44
1.0
  0
MTEXT
  5
C1
330
1F
100
AcDbEntity
  8
Text
  6
AUSGEZOGEN
 62
     7
440
 33554687
370
    35
100
AcDbMText
 10
-8562.097627641255
 20
-3277.766564335788
 30
0.0
 40
0.005
 41
0.1180161782091972
 46
0.0
 71
     1
 72
     5
  1
\A1;{\fArial|i0|b0;\H0.005000;\W1.000000;\C7;Brandenburgischer Landesbetrieb }\P{\fArial|i0|b0;\H0.005000;\W1.000000;\C7;für Liegenschaften und Bauen (BLB)}\P
  7
ARIAL
 73
     1
 44
0.9036144578313254
  0
MTEXT
  5
C2
330
1F
100
AcDbEntity
  8
Text
  6
AUSGEZOGEN
 62
     7
440
 33554687
370
    35
100
AcDbMText
 10
-8562.097521099193
 20
-3277.789341698452
 30
0.0
 40
0.0039
 41
0.0640344381304685
 46
0.0
 71
     1
 72
     5
  1
\A1;{\fArial|i0|b0;\H0.003900;\W1.000000;\C7;Sophie-Alberti-Straße 4-6}\P{\fArial|i0|b0;\H0.003900;\W1.000000;\C7;14478 Potsdam}\P
  7
ARIAL
 73
     1
 44
0.9036144578313253
  0
MTEXT
  5
C3
330
1F
100
AcDbEntity
  8
Text
  6
AUSGEZOGEN
 62
     7
440
 33554687
370
    35
100
AcDbMText
 10
-8562.025171221883
 20
-3277.789190607449
 30
0.0
 40
0.0025
 41
0.0619815512639088
 46
0.0
 71
     1
 72
     5
  1
\A1;{\fArial|i0|b0;\H0.002500;\W1.000000;\C7;Tel.: 0331 / 58181-0}\P{\fArial|i0|b0;\H0.002500;\W1.000000;\C7;Fax.: 0331 / 58181-199}\P{\fArial|i0|b0;\H0.002500;\W1.000000;\C7;E-Mail: poststelle@blb.brandenburg.de}\P
  7
ARIAL
 73
     1
 44
0.9036144578313254
  0
MTEXT
  5
C4
330
1F
100
AcDbEntity
  8
Text
  6
AUSGEZOGEN
 62
     7
440
 33554687
370
    35
100
AcDbMText
 10
-8562.03503954765
 20
-3277.747560281963
 30
0.0
 40
0.0035
 41
0.0233387860738791
 46
0.0
 71
     9
 72
     5
  1
\W0.97;1189x841
  7
ARIAL
 73
     1
 44
1.0
  0
MTEXT
  5
C5
330
1F
100
AcDbEntity
  8
Text
  6
AUSGEZOGEN
 62
     7
440
 33554687
370
    35
100
AcDbMText
 10
-8561.988568710158
 20
-3277.747560281963
 30
0.0
 40
0.0035
 41
0.024031045751646
 46
0.0
 71
     9
 72
     5
  1
\W1.00;xx.yy.zzzz
  7
ARIAL
 73
     1
 44
1.0
  0
MTEXT
  5
C6
330
1F
100
AcDbEntity
  8
Text
  6
AUSGEZOGEN
 62
     7
440
 33554687
370
    35
100
AcDbMText
 10
-8561.96447006133
 20
-3277.747560281963
 30
0.0
 40
0.0035
 41
0.0044747050165767
 46
0.0
 71
     9
 72
     5
  1
\W0.99;a
  7
ARIAL
 73
     1
 44
1.0
  0
MTEXT
  5
C7
330
1F
100
AcDbEntity
  8
Text
  6
AUSGEZOGEN
 62
     7
440
 33554687
370
    35
100
AcDbMText
 10
-8562.100908257089
 20
-3277.676633398469
 30
0.0
 40
0.002
 41
0.0025569742934852
 46
0.0
 71
     7
 72
     5
  1
\A1;{\fArial|i0|b0;\H0.002000;\W1.000000;\C7;a}\P
  7
ARIAL
 73
     1
 44
1.0
  0
MTEXT
  5
C8
330
1F
100
AcDbEntity
  8
Text
  6
AUSGEZOGEN
 62
     7
440
 33554687
370
    35
100
AcDbMText
 10
-8562.09169125709
 20
-3277.676633398469
 30
0.0
 40
0.002
 41
0.0167965939202898
 46
0.0
 71
     7
 72
     5
  1
\A1;{\fArial|i0|b0;\H0.002000;\W1.000000;\C7;XX.YY.ZZZZ}\P
  7
ARIAL
 73
     1
 44
1.0
  0
MTEXT
  5
C9
330
1F
100
AcDbEntity
  8
Text
  6
AUSGEZOGEN
 62
     7
440
 33554687
370
    35
100
AcDbMText
 10
-8562.072941257093
 20
-3277.67662139847
 30
0.0
 40
0.002
 41
0.0085032102729012
 46
0.0
 71
     7
 72
     5
  1
\A1;{\fArial|i0|b0;\H0.002000;\W1.000000;\C7;Name}\P
  7
ARIAL
 73
     1
 44
1.0
  0
LINE
  5
CA
330
1F
100
AcDbEntity
  8
Plankopf
  6
AUSGEZOGEN
 62
     7
440
 33554687
370
    25
100
AcDbLine
 10
-8562.10200825709
 20
-3277.64136939847
 30
0.0
 11
-8562.10200825709
 21
-3277.879671398471
 31
0.0
  0
LINE
  5
CB
330
1F
100
AcDbEntity
  8
Plankopf
  6
AUSGEZOGEN
 62
     7
440
 33554687
370
    50
100
AcDbLine
 10
-8562.14700825709
 20
-3277.879671398471
 30
0.0
 11
-8562.14700825709
 21
-3277.64136939847
 31
0.0
  0
LINE
  5
CC
330
1F
100
AcDbEntity
  8
Plankopf
  6
AUSGEZOGEN
 62
     7
440
 33554687
370
    50
100
AcDbLine
 10
-8562.14700825709
 20
-3277.64136939847
 30
0.0
 11
-8561.962008257091
 21
-3277.64136939847
 31
0.0
  0
LINE
  5
CD
330
1F
100
AcDbEntity
  8
Plankopf
  6
AUSGEZOGEN
 62
     7
440
 33554687
370
    50
100
AcDbLine
 10
-8561.962008257091
 20
-3277.879671398471
 30
0.0
 11
-8562.14700825709
 21
-3277.879671398471
 31
0.0
  0
LINE
  5
CE
330
1F
100
AcDbEntity
  8
Plankopf
  6
AUSGEZOGEN
 62
     7
440
 33554687
370
    50
100
AcDbLine
 10
-8562.14700825709
 20
-3277.802171398471
 30
0.0
 11
-8561.962008257091
 21
-3277.802171398471
 31
0.0
  0
LINE
  5
CF
330
1F
100
AcDbEntity
  8
Plankopf
  6
AUSGEZOGEN
 62
     7
440
 33554687
370
    50
100
AcDbLine
 10
-8562.147008257092
 20
-3277.710869398475
 30
0.0
 11
-8561.962008257093
 21
-3277.710869398475
 31
0.0
  0
LINE
  5
D0
330
1F
100
AcDbEntity
  8
Plankopf
  6
AUSGEZOGEN
 62
     7
440
 33554687
370
    50
100
AcDbLine
 10
-8561.962008257091
 20
-3277.64136939847
 30
0.0
 11
-8561.962008257091
 21
-3277.879671398471
 31
0.0
  0
MTEXT
  5
D1
330
1F
100
AcDbEntity
  8
Text
  6
AUSGEZOGEN
 62
     7
440
 33554687
370
    25
100
AcDbMText
 10
-8562.092680308862
 20
-3277.63401671691
 30
0.0
 40
0.0025
 41
0.0818311010297981
 46
0.0
 71
     7
 72
     5
  1
\W1.00;A l l e   M a ß e   s i n d   a m   B a u   z u   p r ü f e n
  7
ARIAL
 73
     1
 44
1.0
  0
LINE
  5
D2
330
1F
100
AcDbEntity
  8
Plankopf
  6
AUSGEZOGEN
 62
     7
440
 33554687
370
    25
100
AcDbLine
 10
-8562.067008257092
 20
-3277.737869398475
 30
0.0
 11
-8562.067008257092
 21
-3277.749869398475
 31
0.0
  0
LINE
  5
D3
330
1F
100
AcDbEntity
  8
Plankopf
  6
AUSGEZOGEN
 62
     7
440
 33554687
370
    25
100
AcDbLine
 10
-8561.987008257092
 20
-3277.737869398475
 30
0.0
 11
-8561.987008257092
 21
-3277.749869398475
 31
0.0
  0
LINE
  5
D4
330
1F
100
AcDbEntity
  8
Plankopf
  6
AUSGEZOGEN
 62
     7
440
 33554687
370
    50
100
AcDbLine
 10
-8562.147008257092
 20
-3277.761869398475
 30
0.0
 11
-8561.962008257093
 21
-3277.761869398475
 31
0.0
  0
LINE
  5
D5
330
1F
100
AcDbEntity
  8
Plankopf
  6
AUSGEZOGEN
 62
     7
440
 33554687
370
    25
100
AcDbLine
 10
-8562.032008257092
 20
-3277.737869398475
 30
0.0
 11
-8562.032008257092
 21
-3277.761869398475
 31
0.0
  0
MTEXT
  5
D6
330
1F
100
AcDbEntity
  8
Text
  6
AUSGEZOGEN
 62
     7
440
 33554687
370
    25
100
AcDbMText
 10
-8562.100753367607
 20
-3277.869923128002
 30
0.0
 40
0.0025
 41
0.0192136341401652
 46
0.0
 71
     7
 72
     5
  1
\W1.00;gezeichnet:
  7
ARIAL
 73
     1
 44
1.0
  0
LINE
  5
D7
330
1F
100
AcDbEntity
  8
Plankopf
  6
AUSGEZOGEN
 62
     7
440
 33554687
370
    25
100
AcDbLine
 10
-8562.074121257094
 20
-3277.64136939847
 30
0.0
 11
-8562.074121257094
 21
-3277.68186939847
 31
0.0
  0
LINE
  5
D8
330
1F
100
AcDbEntity
  8
Plankopf
  6
AUSGEZOGEN
 62
     7
440
 33554687
370
    25
100
AcDbLine
 10
-8562.092791257091
 20
-3277.64136939847
 30
0.0
 11
-8562.092791257091
 21
-3277.68186939847
 31
0.0
  0
LINE
  5
D9
330
1F
100
AcDbEntity
  8
Plankopf
  6
AUSGEZOGEN
 62
     7
440
 33554687
370
    50
100
AcDbLine
 10
-8562.14700825709
 20
-3277.68186939847
 30
0.0
 11
-8561.962008257091
 21
-3277.68186939847
 31
0.0
  0
LINE
  5
DA
330
1F
100
AcDbEntity
  8
Plankopf
  6
AUSGEZOGEN
 62
     7
440
 33554687
370
    25
100
AcDbLine
 10
-8562.055455257092
 20
-3277.64136939847
 30
0.0
 11
-8562.055455257092
 21
-3277.68186939847
 31
0.0
  0
LINE
  5
DB
330
1F
100
AcDbEntity
  8
Plankopf
  6
AUSGEZOGEN
 62
     7
440
 33554687
370
    50
100
AcDbLine
 10
-8561.962008257091
 20
-3277.62836939847
 30
0.0
 11
-8561.962008257091
 21
-3277.63636939847
 31
0.0
  0
LINE
  5
DC
330
1F
100
AcDbEntity
  8
Plankopf
  6
AUSGEZOGEN
 62
     7
440
 33554687
370
    50
100
AcDbLine
 10
-8562.14700825709
 20
-3277.62836939847
 30
0.0
 11
-8561.962008257091
 21
-3277.62836939847
 31
0.0
  0
LINE
  5
DD
330
1F
100
AcDbEntity
  8
Plankopf
  6
AUSGEZOGEN
 62
     7
440
 33554687
370
    50
100
AcDbLine
 10
-8561.962008257091
 20
-3277.63636939847
 30
0.0
 11
-8562.14700825709
 21
-3277.63636939847
 31
0.0
  0
LINE
  5
DE
330
1F
100
AcDbEntity
  8
Plankopf
  6
AUSGEZOGEN
 62
     7
440
 33554687
370
    50
100
AcDbLine
 10
-8562.14700825709
 20
-3277.63636939847
 30
0.0
 11
-8562.14700825709
 21
-3277.62836939847
 31
0.0
  0
MTEXT
  5
DF
330
1F
100
AcDbEntity
  8
Text
  6
AUSGEZOGEN
 62
     7
440
 33554687
370
    35
100
AcDbMText
 10
-8562.145833257093
 20
-3277.742955619445
 30
0.0
 40
0.0035
 41
0.0359431836906091
 46
0.0
 71
     7
 72
     5
  1
\W1.01;Planinformation
  7
ARIAL
 73
     1
 44
1.0
  0
MTEXT
  5
E0
330
1F
100
AcDbEntity
  8
Text
  6
AUSGEZOGEN
 62
     7
440
 33554687
370
    35
100
AcDbMText
 10
-8562.069755197375
 20
-3277.747560281963
 30
0.0
 40
0.0035
 41
0.0112701329535405
 46
0.0
 71
     9
 72
     5
  1
\W0.97;1:50
  7
ARIAL
 73
     1
 44
1.0
  0
MTEXT
  5
E1
330
1F
100
AcDbEntity
  8
Text
  6
AUSGEZOGEN
 62
     7
440
 33554687
370
    25
100
AcDbMText
 10
-8562.100908257089
 20
-3277.85457039847
 30
0.0
 40
0.0025
 41
0.0312540757461813
 46
0.0
 71
     7
 72
     5
  1
\W1.00;Unterschrift Planer:
  7
ARIAL
 73
     1
 44
1.0
  0
MTEXT
  5
E2
330
1F
100
AcDbEntity
  8
Text
  6
AUSGEZOGEN
 62
     7
440
 33554687
370
    25
100
AcDbMText
 10
-8562.029918160668
 20
-3277.854500546393
 30
0.0
 40
0.0025
 41
0.033587340987286
 46
0.0
 71
     7
 72
     5
  1
\W1.00;Unterschrift Bauherr:
  7
ARIAL
 73
     1
 44
1.0
  0
LINE
  5
E3
330
1F
100
AcDbEntity
  8
Plankopf
  6
AUSGEZOGEN
 62
     7
440
 33554687
370
    25
100
AcDbLine
 10
-8562.147008257092
 20
-3277.737869398475
 30
0.0
 11
-8561.962008257093
 21
-3277.737869398475
 31
0.0
  0
MTEXT
  5
E4
330
1F
100
AcDbEntity
  8
Text
  6
AUSGEZOGEN
 62
     7
440
 33554687
370
    25
100
AcDbMText
 10
-8562.030749279507
 20
-3277.753574588174
 30
0.0
 40
0.0025
 41
0.0247161528156676
 46
0.0
 71
     7
 72
     5
  1
\W1.01;Plancodierung:
  7
ARIAL
 73
     1
 44
1.0
  0
MTEXT
  5
E5
330
1F
100
AcDbEntity
  8
Text
  6
AUSGEZOGEN
 62
     7
440
 33554687
370
    35
100
AcDbMText
 10
-8562.100606114816
 20
-3277.759060281963
 30
0.0
 40
0.0035
 41
0.0673039001659906
 46
0.0
 71
     7
 72
     5
  1
\W0.99;Neubau                                    
  7
ARIAL
 73
     1
 44
1.0
  0
MTEXT
  5
E6
330
1F
100
AcDbEntity
  8
Text
  6
AUSGEZOGEN
 62
     7
440
 33554687
370
    35
100
AcDbMText
 10
-8562.022026847948
 20
-3277.759831533087
 30
0.0
 40
0.0035
 41
0.0603885822153394
 46
0.0
 71
     7
 72
     5
  1
\W1.01;0000_0000_0_XX_00_000
  7
ARIAL
 73
     1
 44
1.0
  0
MTEXT
  5
E7
330
1F
100
AcDbEntity
  8
Text
  6
AUSGEZOGEN
 62
     7
440
 33554687
370
    18
100
AcDbMText
 10
-8562.054275257093
 20
-3277.67662139847
 30
0.0
 40
0.002
 41
0.0236728219690931
 46
0.0
 71
     7
 72
     5
  1
\W1.01;Kurzbeschreibung
  7
ARIAL
 73
     1
 44
1.0
  0
MTEXT
  5
E8
330
1F
100
AcDbEntity
  8
Text
  6
AUSGEZOGEN
 62
     7
440
 33554687
370
    18
100
AcDbMText
 10
-8562.054275257093
 20
-3277.68062139847
 30
0.0
 40
0.002
 41
0.0132054392608047
 46
0.0
 71
     7
 72
     5
  1
\W1.01;Änderung
  7
ARIAL
 73
     1
 44
1.0
  0
MTEXT
  5
E9
330
1F
100
AcDbEntity
  8
Text
  6
AUSGEZOGEN
 62
     7
440
 33554687
370
    35
100
AcDbMText
 10
-8562.09700623839
 20
-3277.71831864926
 30
0.0
 40
0.0035
 41
0.0469113326055841
 46
0.0
 71
     7
 72
     5
  1
\W1.01;Ausführungsplanung
  7
ARIAL
 73
     1
 44
1.0
  0
LINE
  5
EA
330
1F
100
AcDbEntity
  8
Plankopf
  6
AUSGEZOGEN
 62
     7
440
 33554687
370
    25
100
AcDbLine
 10
-8561.76700825709
 20
-3277.841671398471
 30
0.0
 11
-8561.76700825709
 21
-3277.879671398471
 31
0.0
  0
LINE
  5
EB
330
1F
100
AcDbEntity
  8
Plankopf
  6
AUSGEZOGEN
 62
     7
440
 33554687
370
    25
100
AcDbLine
 10
-8561.827008257089
 20
-3277.872671398471
 30
0.0
 11
-8561.70700825709
 21
-3277.872671398471
 31
0.0
  0
LINE
  5
EC
330
1F
100
AcDbEntity
  8
Plankopf
  6
AUSGEZOGEN
 62
     7
440
 33554687
370
    25
100
AcDbLine
 10
-8561.827008257089
 20
-3277.841671398471
 30
0.0
 11
-8561.827008257089
 21
-3277.879671398471
 31
0.0
  0
LINE
  5
ED
330
1F
100
AcDbEntity
  8
Plankopf
  6
AUSGEZOGEN
 62
     7
440
 33554687
370
    25
100
AcDbLine
 10
-8561.76700825709
 20
-3277.851671398471
 30
0.0
 11
-8561.827008257089
 21
-3277.851671398471
 31
0.0
  0
LINE
  5
EE
330
1F
100
AcDbEntity
  8
Plankopf
  6
AUSGEZOGEN
 62
     7
440
 33554687
370
    25
100
AcDbLine
 10
-8561.747008257089
 20
-3277.872671398471
 30
0.0
 11
-8561.747008257089
 21
-3277.879671398471
 31
0.0
  0
LINE
  5
EF
330
1F
100
AcDbEntity
  8
Plankopf
  6
AUSGEZOGEN
 62
     7
440
 33554687
370
    25
100
AcDbLine
 10
-8561.727008257089
 20
-3277.872671398471
 30
0.0
 11
-8561.727008257089
 21
-3277.879671398471
 31
0.0
  0
LINE
  5
F0
330
1F
100
AcDbEntity
  8
Plankopf
  6
AUSGEZOGEN
 62
     7
440
 33554687
370
    25
100
AcDbLine
 10
-8561.78450825709
 20
-3277.872671398471
 30
0.0
 11
-8561.78450825709
 21
-3277.879671398471
 31
0.0
  0
LINE
  5
F1
330
1F
100
AcDbEntity
  8
Plankopf
  6
AUSGEZOGEN
 62
     7
440
 33554687
370
    25
100
AcDbLine
 10
-8561.80200825709
 20
-3277.872671398471
 30
0.0
 11
-8561.80200825709
 21
-3277.879671398471
 31
0.0
  0
IMAGE
  5
F2
330
1F
100
AcDbEntity
  8
Text
  6
AUSGEZOGEN
 62
     7
440
 33554687
370
    35
160
               140
310
8C00000001000000840000000600000005000000FA72DEDEECB8C0C06BD44B9FB69BA9C000000000000000008C9E0824EAB8C0C06BD44B9FB69BA9C000000000000000008C9E0824EAB8C0C0D43FB59FB09BA9C00000000000000000FA72DEDEECB8C0C0D43FB59FB09BA9C00000000000000000FA72DEDEECB8C0C06BD44B
310
9FB69BA9C00000000000000000
100
AcDbRasterImage
 90
        0
 10
-8561.850551420346
 20
-3277.856684083633
 30
0.0
 11
3.971463692629471E-5
 21
0.0
 31
0.0
 12
4.863553269490067E-21
 22
3.971392627552909E-5
 32
0.0
 13
537.0
 23
295.0
340
AE
 70
     7
280
     1
281
    50
282
    50
283
     0
360
F3
 71
     2
 91
        5
 14
-0.4999999701976776
 24
294.5000000149012
 14
536.5000000298023
 24
294.5000000149012
 14
536.5000000298023
 24
-0.5
 14
-0.4999999701976776
 24
-0.5
 14
-0.4999999701976776
 24
294.5000000149012
290
     0
  0
MTEXT
  5
F4
330
1F
100
AcDbEntity
  8
Text
  6
AUSGEZOGEN
 62
     7
440
 33554687
370
    25
100
AcDbMText
 10
-8561.807620158286
 20
-3277.849340152591
 30
0.0
 40
0.0025
 41
0.0335080947179352
 46
0.0
 71
     7
 72
     5
  1
\W1.01;Ausführungsplanung
  7
ARIAL
 73
     1
 44
1.0
  0
MTEXT
  5
F5
330
1F
100
AcDbEntity
  8
Text
  6
AUSGEZOGEN
 62
     7
440
 33554687
370
    18
100
AcDbMText
 10
-8561.824037736005
 20
-3277.860559544201
 30
0.0
 40
0.0018
 41
0.0197133714345796
 46
0.0
 71
     7
 72
     5
  1
\W1.00;Liegenschaft xxx
  7
ARIAL
 73
     1
 44
1.0
  0
MTEXT
  5
F6
330
1F
100
AcDbEntity
  8
Text
  6
AUSGEZOGEN
 62
     7
440
 33554687
370
    25
100
AcDbMText
 10
-8561.823989439294
 20
-3277.867349085031
 30
0.0
 40
0.003
 41
0.0422575841656753
 46
0.0
 71
     7
 72
     5
  1
\W1.01;Neubau Gebäude xxx
  7
ARIAL
 73
     1
 44
1.0
  0
MTEXT
  5
F7
330
1F
100
AcDbEntity
  8
Text
  6
AUSGEZOGEN
 62
     7
440
 33554687
370
    13
100
AcDbMText
 10
-8561.824455587272
 20
-3277.878613355709
 30
0.0
 40
0.0015
 41
0.0206757712449142
 46
0.0
 71
     7
 72
     5
  1
\W0.97;0000-000-A111-1111
  7
ARIAL
 73
     1
 44
1.0
  0
MTEXT
  5
F8
330
1F
100
AcDbEntity
  8
Text
  6
AUSGEZOGEN
 62
     7
440
 33554687
370
    13
100
AcDbMText
 10
-8561.826091996474
 20
-3277.875218841731
 30
0.0
 40
0.0015
 41
0.0160049504951238
 46
0.0
 71
     7
 72
     5
  1
\W1.01;Plan-Codierung:
  7
ARIAL
 73
     1
 44
1.0
  0
MTEXT
  5
F9
330
1F
100
AcDbEntity
  8
Text
  6
AUSGEZOGEN
 62
     7
440
 33554687
370
    13
100
AcDbMText
 10
-8561.801061078253
 20
-3277.875218841731
 30
0.0
 40
0.0015
 41
0.0095000428596788
 46
0.0
 71
     7
 72
     5
  1
\W1.00;Maßstab:
  7
ARIAL
 73
     1
 44
1.0
  0
MTEXT
  5
FA
330
1F
100
AcDbEntity
  8
Text
  6
AUSGEZOGEN
 62
     7
440
 33554687
370
    13
100
AcDbMText
 10
-8561.783535133292
 20
-3277.875218841731
 30
0.0
 40
0.0015
 41
0.0058725204202065
 46
0.0
 71
     7
 72
     5
  1
\W1.00;KGR:
  7
ARIAL
 73
     1
 44
1.0
  0
MTEXT
  5
FB
330
1F
100
AcDbEntity
  8
Text
  6
AUSGEZOGEN
 62
     7
440
 33554687
370
    13
100
AcDbMText
 10
-8561.765976745088
 20
-3277.875218841731
 30
0.0
 40
0.0015
 41
0.0107026475030486
 46
0.0
 71
     7
 72
     5
  1
\W1.00;bearbeitet:
  7
ARIAL
 73
     1
 44
1.0
  0
MTEXT
  5
FC
330
1F
100
AcDbEntity
  8
Text
  6
AUSGEZOGEN
 62
     7
440
 33554687
370
    13
100
AcDbMText
 10
-8561.745976745087
 20
-3277.875218841731
 30
0.0
 40
0.0015
 41
0.007525443068531
 46
0.0
 71
     7
 72
     5
  1
\W1.00;Datum:
  7
ARIAL
 73
     1
 44
1.0
  0
MTEXT
  5
FD
330
1F
100
AcDbEntity
  8
Text
  6
AUSGEZOGEN
 62
     7
440
 33554687
370
    13
100
AcDbMText
 10
-8561.725976745089
 20
-3277.875218841731
 30
0.0
 40
0.0015
 41
0.0120760943088392
 46
0.0
 71
     7
 72
     5
  1
\W1.00;Unterschrift:
  7
ARIAL
 73
     1
 44
1.0
  0
MTEXT
  5
FE
330
1F
100
AcDbEntity
  8
Text
  6
AUSGEZOGEN
 62
     7
440
 33554687
370
    13
100
AcDbMText
 10
-8561.794354798121
 20
-3277.87857992624
 30
0.0
 40
0.0015
 41
0.0036447342532382
 46
0.0
 71
     7
 72
     5
  1
\W0.96;1:5
  7
ARIAL
 73
     1
 44
1.0
  0
MTEXT
  5
FF
330
1F
100
AcDbEntity
  8
Text
  6
AUSGEZOGEN
 62
     7
440
 33554687
370
    13
100
AcDbMText
 10
-8561.777708885737
 20
-3277.878598412712
 30
0.0
 40
0.0015
 41
0.0042772407175708
 46
0.0
 71
     7
 72
     5
  1
\W1.00;400
  7
ARIAL
 73
     1
 44
1.0
  0
MTEXT
  5
100
330
1F
100
AcDbEntity
  8
Text
  6
AUSGEZOGEN
 62
     7
440
 33554687
370
    35
100
AcDbMText
 10
-8561.889531012892
 20
-3277.86937222888
 30
0.0
 40
0.002
 41
0.0328381734013233
 46
0.0
 71
     1
 72
     5
  1
\A1;{\fArial|i0|b0;\H0.002000;\W1.000000;\C7;Sophie-Alberti-Straße 4-6}\P{\fArial|i0|b0;\H0.002000;\W1.000000;\C7;14478 Potsdam}\P
  7
ARIAL
 73
     1
 44
0.9036144578313253
  0
MTEXT
  5
101
330
1F
100
AcDbEntity
  8
Text
  6
AUSGEZOGEN
 62
     7
440
 33554687
370
    13
100
AcDbMText
 10
-8561.82611148014
 20
-3277.844263733286
 30
0.0
 40
0.0015
 41
0.0158794393456484
 46
0.0
 71
     7
 72
     5
  1
\W1.01;Planungsphase:
  7
ARIAL
 73
     1
 44
1.0
  0
MTEXT
  5
102
330
1F
100
AcDbEntity
  8
Text
  6
AUSGEZOGEN
 62
     7
440
 33554687
370
    13
100
AcDbMText
 10
-8561.825952861156
 20
-3277.85431166623
 30
0.0
 40
0.0015
 41
0.0157278908996299
 46
0.0
 71
     7
 72
     5
  1
\W1.00;Baumaßnahme:
  7
ARIAL
 73
     1
 44
1.0
  0
MTEXT
  5
103
330
1F
100
AcDbEntity
  8
Text
  6
AUSGEZOGEN
 62
     7
440
 33554687
370
    13
100
AcDbMText
 10
-8561.76589759117
 20
-3277.844333574582
 30
0.0
 40
0.0015
 41
0.0074271974316972
 46
0.0
 71
     7
 72
     5
  1
\W1.00;Planer:
  7
ARIAL
 73
     1
 44
1.0
  0
MTEXT
  5
104
330
1F
100
AcDbEntity
  8
Text
  6
AUSGEZOGEN
 62
     7
440
 33554687
370
    25
100
AcDbMText
 10
-8561.889416326765
 20
-3277.84541495333
 30
0.0
 40
0.0025
 41
0.031924012572782
 46
0.0
 71
     1
 72
     5
  1
\A1;{\fArial|i0|b0;\H0.002500;\W1.000000;\C7;Brandenburgischer }\P{\fArial|i0|b0;\H0.002500;\W1.000000;\C7;Landesbetrieb für}\P{\fArial|i0|b0;\H0.002500;\W1.000000;\C7;Liegenschaften }\P{\fArial|i0|b0;\H0.002500;\W1.000000;\C7;und Bauen (BLB)}\P
  7
ARIAL
 73
     1
 44
0.9036144578313254
  0
MTEXT
  5
105
330
1F
100
AcDbEntity
  8
Text
  6
AUSGEZOGEN
 62
     7
440
 33554687
370
    35
100
AcDbMText
 10
-8561.828769778593
 20
-3277.872023481398
 30
0.0
 40
0.0015
 41
0.0371889307576286
 46
0.0
 71
     3
 72
     5
  1
\A1;{\fArial|i0|b0;\H0.001500;\W1.000000;\C7;Tel.: 0331 / 58181-0}\P{\fArial|i0|b0;\H0.001500;\W1.000000;\C7;Fax.: 0331 / 58181-199}\P{\fArial|i0|b0;\H0.001500;\W1.000000;\C7;E-Mail: poststelle@blb.brandenburg.de}\P
  7
ARIAL
 73
     1
 44
0.9036144578313254
  0
MTEXT
  5
106
330
1F
100
AcDbEntity
  8
Text
  6
AUSGEZOGEN
 62
     7
440
 33554687
370
    25
100
AcDbMText
 10
-8561.842980441874
 20
-3277.833942272538
 30
0.0
 40
0.0025
 41
0.0818311010297981
 46
0.0
 71
     7
 72
     5
  1
\W1.00;A l l e   M a ß e   s i n d   a m   B a u   z u   p r ü f e n
  7
ARIAL
 73
     1
 44
1.0
  0
LINE
  5
107
330
1F
100
AcDbEntity
  8
Plankopf
  6
AUSGEZOGEN
 62
     7
440
 33554687
370
    50
100
AcDbLine
 10
-8561.70700825709
 20
-3277.879671398471
 30
0.0
 11
-8561.70700825709
 21
-3277.841671398471
 31
0.0
  0
LINE
  5
108
330
1F
100
AcDbEntity
  8
Plankopf
  6
AUSGEZOGEN
 62
     7
440
 33554687
370
    50
100
AcDbLine
 10
-8561.89200825709
 20
-3277.879671398471
 30
0.0
 11
-8561.70700825709
 21
-3277.879671398471
 31
0.0
  0
LINE
  5
109
330
1F
100
AcDbEntity
  8
Plankopf
  6
AUSGEZOGEN
 62
     7
440
 33554687
370
    50
100
AcDbLine
 10
-8561.89200825709
 20
-3277.841671398471
 30
0.0
 11
-8561.89200825709
 21
-3277.879671398471
 31
0.0
  0
LINE
  5
10A
330
1F
100
AcDbEntity
  8
Plankopf
  6
AUSGEZOGEN
 62
     7
440
 33554687
370
    50
100
AcDbLine
 10
-8561.70700825709
 20
-3277.841671398471
 30
0.0
 11
-8561.89200825709
 21
-3277.841671398471
 31
0.0
  0
LINE
  5
10B
330
1F
100
AcDbEntity
  8
Plankopf
  6
AUSGEZOGEN
 62
     7
440
 33554687
370
    50
100
AcDbLine
 10
-8561.70700825709
 20
-3277.828671398471
 30
0.0
 11
-8561.70700825709
 21
-3277.836671398471
 31
0.0
  0
LINE
  5
10C
330
1F
100
AcDbEntity
  8
Plankopf
  6
AUSGEZOGEN
 62
     7
440
 33554687
370
    50
100
AcDbLine
 10
-8561.89200825709
 20
-3277.828671398471
 30
0.0
 11
-8561.70700825709
 21
-3277.828671398471
 31
0.0
  0
LINE
  5
10D
330
1F
100
AcDbEntity
  8
Plankopf
  6
AUSGEZOGEN
 62
     7
440
 33554687
370
    50
100
AcDbLine
 10
-8561.70700825709
 20
-3277.836671398471
 30
0.0
 11
-8561.89200825709
 21
-3277.836671398471
 31
0.0
  0
LINE
  5
10E
330
1F
100
AcDbEntity
  8
Plankopf
  6
AUSGEZOGEN
 62
     7
440
 33554687
370
    50
100
AcDbLine
 10
-8561.89200825709
 20
-3277.836671398471
 30
0.0
 11
-8561.89200825709
 21
-3277.828671398471
 31
0.0
  0
ENDSEC
  0
SECTION
  2
OBJECTS
  0
DICTIONARY
  5
C
330
0
100
AcDbDictionary
281
     1
  3
ACAD_DETAILVIEWSTYLE
350
115
  3
ACAD_GROUP
350
D
  3
ACAD_IMAGE_DICT
350
AD
  3
ACAD_IMAGE_VARS
350
AF
  3
ACAD_LAYOUT
350
1A
  3
ACAD_MATERIAL
350
43
  3
ACAD_MLEADERSTYLE
350
6B
  3
ACAD_MLINESTYLE
350
17
  3
ACAD_PLOTSETTINGS
350
19
  3
ACAD_PLOTSTYLENAME
350
E
  3
ACAD_SCALELIST
350
47
  3
ACAD_SECTIONVIEWSTYLE
350
116
  3
ACAD_TABLESTYLE
350
69
  3
ACAD_VISUALSTYLE
350
2A
  3
ACDB_RECOMPOSE_DATA
350
119
  3
AcDbVariableDictionary
350
111
  0
SUN
  5
6D
330
29
100
AcDbSun
 90
        1
290
     0
 63
     7
421
 16777215
 40
1.0
291
     1
 91
  2455826
 92
 54000000
292
     0
 70
     2
 71
   256
280
     1
  0
DICTIONARY
  5
10F
330
1F
100
AcDbDictionary
280
     1
281
     1
  3
ACAD_SORTENTS
360
110
  0
IMAGEDEF_REACTOR
  5
B1
330
B0
100
AcDbRasterImageDefReactor
 90
        2
330
B0
  0
IMAGEDEF_REACTOR
  5
F3
330
F2
100
AcDbRasterImageDefReactor
 90
        2
330
F2
  0
DICTIONARY
  5
115
102
{ACAD_REACTORS
330
C
102
}
330
C
100
AcDbDictionary
281
     1
  0
DICTIONARY
  5
D
102
{ACAD_REACTORS
330
C
102
}
330
C
100
AcDbDictionary
281
     1
  0
DICTIONARY
  5
AD
102
{ACAD_REACTORS
330
C
102
}
330
C
100
AcDbDictionary
281
     1
  3
F:\data\nem\Datenmigration\Vorlage für Download\blb_logo.tif
350
AE
  0
RASTERVARIABLES
  5
AF
102
{ACAD_REACTORS
330
C
102
}
330
C
100
AcDbRasterVariables
 90
        0
 70
     1
 71
     1
 72
     3
  0
DICTIONARY
  5
1A
102
{ACAD_REACTORS
330
C
102
}
330
C
100
AcDbDictionary
281
     1
  3
Layout1
350
1E
  3
Layout2
350
26
  3
Model
350
22
  0
DICTIONARY
  5
43
102
{ACAD_REACTORS
330
C
102
}
330
C
100
AcDbDictionary
281
     1
  3
ByBlock
350
45
  3
ByLayer
350
44
  3
Global
350
46
  0
DICTIONARY
  5
6B
102
{ACAD_REACTORS
330
C
102
}
330
C
100
AcDbDictionary
281
     1
  3
Standard
350
6C
  0
DICTIONARY
  5
17
102
{ACAD_REACTORS
330
C
102
}
330
C
100
AcDbDictionary
281
     1
  3
Standard
350
18
  0
DICTIONARY
  5
19
102
{ACAD_REACTORS
330
C
102
}
330
C
100
AcDbDictionary
281
     1
  0
ACDBDICTIONARYWDFLT
  5
E
102
{ACAD_REACTORS
330
C
102
}
330
C
100
AcDbDictionary
281
     1
  3
Normal
350
F
100
AcDbDictionaryWithDefault
340
F
  0
DICTIONARY
  5
47
102
{ACAD_REACTORS
330
C
102
}
330
C
100
AcDbDictionary
281
     1
  3
A0
350
48
  3
A1
350
49
  3
A2
350
4A
  3
A3
350
4B
  3
A4
350
4C
  3
A5
350
4D
  3
A6
350
4E
  3
A7
350
4F
  3
A8
350
50
  3
A9
350
51
  3
B0
350
52
  3
B1
350
53
  3
B2
350
54
  3
B3
350
55
  3
B4
350
56
  3
B5
350
57
  3
B6
350
58
  3
B7
350
59
  3
B8
350
5A
  3
B9
350
5B
  3
C0
350
5C
  3
C1
350
5D
  3
C2
350
5E
  3
C3
350
5F
  3
C4
350
60
  3
C5
350
61
  3
C6
350
62
  3
C7
350
63
  3
C8
350
64
  3
C9
350
65
  3
D0
350
66
  3
D1
350
67
  3
D2
350
68
  0
DICTIONARY
  5
116
102
{ACAD_REACTORS
330
C
102
}
330
C
100
AcDbDictionary
281
     1
  0
DICTIONARY
  5
69
102
{ACAD_REACTORS
330
C
102
}
330
C
100
AcDbDictionary
281
     1
  3
Standard
350
6A
  0
DICTIONARY
  5
2A
102
{ACAD_REACTORS
330
C
102
}
330
C
100
AcDbDictionary
281
     1
  3
2dWireframe
350
2F
  3
Basic
350
32
  3
Brighten
350
36
  3
ColorChange
350
3A
  3
Conceptual
350
34
  3
Dim
350
35
  3
EdgeColorOff
350
3D
  3
Facepattern
350
39
  3
Flat
350
2B
  3
FlatWithEdges
350
2C
  3
Gouraud
350
2D
  3
GouraudWithEdges
350
2E
  3
Hidden
350
31
  3
JitterOff
350
3B
  3
Linepattern
350
38
  3
OverhangOff
350
3C
  3
Realistic
350
33
  3
Shaded
350
42
  3
Shaded with edges
350
41
  3
Shades of Gray
350
3E
  3
Sketchy
350
3F
  3
Thicken
350
37
  3
Wireframe
350
30
  3
X-Ray
350
40
  0
XRECORD
  5
119
102
{ACAD_REACTORS
330
C
102
}
330
C
100
AcDbXrecord
280
     1
 90
        1
330
6A
  0
DICTIONARY
  5
111
102
{ACAD_REACTORS
330
C
102
}
330
C
100
AcDbDictionary
281
     1
  3
CANNOSCALE
350
112
  3
CMLEADERSTYLE
350
114
  3
CTABLESTYLE
350
113
  0
SORTENTSTABLE
  5
110
102
{ACAD_REACTORS
330
10F
102
}
330
10F
100
AcDbSortentsTable
330
1F
331
7B
  5
7D
331
7C
  5
7E
331
7D
  5
7F
331
7E
  5
80
331
7F
  5
81
331
80
  5
82
331
81
  5
83
331
82
  5
84
331
83
  5
85
331
84
  5
86
331
85
  5
87
331
86
  5
88
331
87
  5
89
331
88
  5
8A
331
89
  5
8B
331
8A
  5
8C
331
8B
  5
8D
331
8C
  5
8E
331
8D
  5
8F
331
8E
  5
90
331
8F
  5
91
331
90
  5
7B
331
91
  5
7C
  0
IMAGEDEF
  5
AE
102
{ACAD_REACTORS
330
AD
330
B1
330
F3
102
}
330
AD
100
AcDbRasterImageDef
 90
        0
  1
F:\data\nem\Datenmigration\Vorlage für Download\blb_logo.tif
 10
537.0
 20
295.0
 11
0.1693193362682018
 21
0.1693193362682018
280
     1
281
     3
  0
LAYOUT
  5
1E
102
{ACAD_REACTORS
330
1A
102
}
330
1A
100
AcDbPlotSettings
  1

  2
none_device
  4
none_user_media
  6

 40
6.35
 41
19.05
 42
6.35000508
 43
19.0499873
 44
251.3022000002675
 45
440.0002000033855
 46
-8562147.008357093
 47
-3277879.67149847
 48
0.0
 49
0.0
140
0.0
141
0.0
142
1000.0
143
1.0
 70
   688
 72
     1
 73
     0
 74
     5
  7

 75
    33
 76
     0
 77
     2
 78
   300
147
1000.0
148
0.0
149
0.0
100
AcDbLayout
  1
Layout1
 70
     1
 71
     1
 10
0.0
 20
0.0
 11
12.0
 21
9.0
 12
0.0
 22
0.0
 32
0.0
 14
1.000000000000000E+20
 24
1.000000000000000E+20
 34
1.000000000000000E+20
 15
-1.000000000000000E+20
 25
-1.000000000000000E+20
 35
-1.000000000000000E+20
146
0.0
 13
0.0
 23
0.0
 33
0.0
 16
1.0
 26
0.0
 36
0.0
 17
0.0
 27
1.0
 37
0.0
 76
     0
330
1B
  0
LAYOUT
  5
26
102
{ACAD_REACTORS
330
1A
102
}
330
1A
100
AcDbPlotSettings
  1

  2
none_device
  4

  6

 40
0.0
 41
0.0
 42
0.0
 43
0.0
 44
0.0
 45
0.0
 46
0.0
 47
0.0
 48
0.0
 49
0.0
140
0.0
141
0.0
142
1.0
143
1.0
 70
   688
 72
     0
 73
     0
 74
     5
  7

 75
    16
 76
     0
 77
     2
 78
   300
147
1.0
148
0.0
149
0.0
100
AcDbLayout
  1
Layout2
 70
     1
 71
     2
 10
0.0
 20
0.0
 11
0.0
 21
0.0
 12
0.0
 22
0.0
 32
0.0
 14
0.0
 24
0.0
 34
0.0
 15
0.0
 25
0.0
 35
0.0
146
0.0
 13
0.0
 23
0.0
 33
0.0
 16
1.0
 26
0.0
 36
0.0
 17
0.0
 27
1.0
 37
0.0
 76
     0
330
23
  0
LAYOUT
  5
22
102
{ACAD_REACTORS
330
1A
102
}
330
1A
100
AcDbPlotSettings
  1

  2
none_device
  4
Letter_(8.50_x_11.00_Inches)
  6

 40
6.35
 41
6.35
 42
6.35000508
 43
6.35000508
 44
215.9
 45
279.4
 46
0.0
 47
0.0
 48
0.0
 49
0.0
140
0.0
141
0.0
142
1.0
143
1.0
 70
  1712
 72
     0
 73
     0
 74
     0
  7

 75
     0
 76
     0
 77
     2
 78
   300
147
1.0
148
0.0
149
0.0
100
AcDbLayout
  1
Model
 70
     1
 71
     0
 10
-8562.147008357093
 20
-3277.879671498471
 11
-8561.70700815709
 21
-3277.62836929847
 12
0.0
 22
0.0
 32
0.0
 14
-8562.147008357093
 24
-3277.879671498471
 34
-8562.147008357093
 15
-8561.70700815709
 25
-3277.62836929847
 35
-8561.70700815709
146
0.0
 13
0.0
 23
0.0
 33
0.0
 16
1.0
 26
0.0
 36
0.0
 17
0.0
 27
1.0
 37
0.0
 76
     0
330
1F
331
29
  0
MATERIAL
  5
45
102
{ACAD_REACTORS
330
43
102
}
330
43
100
AcDbMaterial
  1
ByBlock
 72
     1
 94
      127
  0
MATERIAL
  5
44
102
{ACAD_REACTORS
330
43
102
}
330
43
100
AcDbMaterial
  1
ByLayer
 72
     1
 94
      127
  0
MATERIAL
  5
46
102
{ACAD_REACTORS
330
43
102
}
330
43
100
AcDbMaterial
  1
Global
 72
     1
 94
      127
  0
MLEADERSTYLE
  5
6C
102
{ACAD_REACTORS
330
6B
102
}
330
6B
100
AcDbMLeaderStyle
179
     2
170
     2
171
     1
172
     0
 90
        2
 40
0.0
 41
0.0
173
     1
 91
-1056964608
340
14
 92
       -2
290
     1
 42
0.09
291
     1
 43
0.36
  3
Standard
341
0
 44
0.18
300

342
11
174
     1
178
     6
175
     1
176
     0
 93
-1056964608
 45
0.18
292
     0
297
     0
 46
0.18
343
0
 94
-1056964608
 47
1.0
 49
1.0
140
1.0
293
     1
141
0.0
294
     1
177
     0
142
1.0
295
     0
296
     0
143
0.125
271
     0
272
     9
273
     9
298
     0
  0
MLINESTYLE
  5
18
102
{ACAD_REACTORS
330
17
102
}
330
17
100
AcDbMlineStyle
  2
Standard
 70
     0
  3

 62
   256
 51
90.0
 52
90.0
 71
     2
 49
0.5
 62
   256
  6
BYLAYER
 49
-0.5
 62
   256
  6
BYLAYER
  0
ACDBPLACEHOLDER
  5
F
102
{ACAD_REACTORS
330
E
102
}
330
E
  0
SCALE
  5
48
102
{ACAD_REACTORS
330
47
102
}
330
47
100
AcDbScale
 70
     0
300
1:1
140
1.0
141
1.0
290
     1
  0
SCALE
  5
49
102
{ACAD_REACTORS
330
47
102
}
330
47
100
AcDbScale
 70
     0
300
1:2
140
1.0
141
2.0
290
     0
  0
SCALE
  5
4A
102
{ACAD_REACTORS
330
47
102
}
330
47
100
AcDbScale
 70
     0
300
1:4
140
1.0
141
4.0
290
     0
  0
SCALE
  5
4B
102
{ACAD_REACTORS
330
47
102
}
330
47
100
AcDbScale
 70
     0
300
1:5
140
1.0
141
5.0
290
     0
  0
SCALE
  5
4C
102
{ACAD_REACTORS
330
47
102
}
330
47
100
AcDbScale
 70
     0
300
1:8
140
1.0
141
8.0
290
     0
  0
SCALE
  5
4D
102
{ACAD_REACTORS
330
47
102
}
330
47
100
AcDbScale
 70
     0
300
1:10
140
1.0
141
10.0
290
     0
  0
SCALE
  5
4E
102
{ACAD_REACTORS
330
47
102
}
330
47
100
AcDbScale
 70
     0
300
1:16
140
1.0
141
16.0
290
     0
  0
SCALE
  5
4F
102
{ACAD_REACTORS
330
47
102
}
330
47
100
AcDbScale
 70
     0
300
1:20
140
1.0
141
20.0
290
     0
  0
SCALE
  5
50
102
{ACAD_REACTORS
330
47
102
}
330
47
100
AcDbScale
 70
     0
300
1:30
140
1.0
141
30.0
290
     0
  0
SCALE
  5
51
102
{ACAD_REACTORS
330
47
102
}
330
47
100
AcDbScale
 70
     0
300
1:40
140
1.0
141
40.0
290
     0
  0
SCALE
  5
52
102
{ACAD_REACTORS
330
47
102
}
330
47
100
AcDbScale
 70
     0
300
1:50
140
1.0
141
50.0
290
     0
  0
SCALE
  5
53
102
{ACAD_REACTORS
330
47
102
}
330
47
100
AcDbScale
 70
     0
300
1:100
140
1.0
141
100.0
290
     0
  0
SCALE
  5
54
102
{ACAD_REACTORS
330
47
102
}
330
47
100
AcDbScale
 70
     0
300
2:1
140
2.0
141
1.0
290
     0
  0
SCALE
  5
55
102
{ACAD_REACTORS
330
47
102
}
330
47
100
AcDbScale
 70
     0
300
4:1
140
4.0
141
1.0
290
     0
  0
SCALE
  5
56
102
{ACAD_REACTORS
330
47
102
}
330
47
100
AcDbScale
 70
     0
300
8:1
140
8.0
141
1.0
290
     0
  0
SCALE
  5
57
102
{ACAD_REACTORS
330
47
102
}
330
47
100
AcDbScale
 70
     0
300
10:1
140
10.0
141
1.0
290
     0
  0
SCALE
  5
58
102
{ACAD_REACTORS
330
47
102
}
330
47
100
AcDbScale
 70
     0
300
100:1
140
100.0
141
1.0
290
     0
  0
SCALE
  5
59
102
{ACAD_REACTORS
330
47
102
}
330
47
100
AcDbScale
 70
     0
300
1/128" = 1'-0"
140
0.0078125
141
12.0
290
     0
  0
SCALE
  5
5A
102
{ACAD_REACTORS
330
47
102
}
330
47
100
AcDbScale
 70
     0
300
1/64" = 1'-0"
140
0.015625
141
12.0
290
     0
  0
SCALE
  5
5B
102
{ACAD_REACTORS
330
47
102
}
330
47
100
AcDbScale
 70
     0
300
1/32" = 1'-0"
140
0.03125
141
12.0
290
     0
  0
SCALE
  5
5C
102
{ACAD_REACTORS
330
47
102
}
330
47
100
AcDbScale
 70
     0
300
1/16" = 1'-0"
140
0.0625
141
12.0
290
     0
  0
SCALE
  5
5D
102
{ACAD_REACTORS
330
47
102
}
330
47
100
AcDbScale
 70
     0
300
3/32" = 1'-0"
140
0.09375
141
12.0
290
     0
  0
SCALE
  5
5E
102
{ACAD_REACTORS
330
47
102
}
330
47
100
AcDbScale
 70
     0
300
1/8" = 1'-0"
140
0.125
141
12.0
290
     0
  0
SCALE
  5
5F
102
{ACAD_REACTORS
330
47
102
}
330
47
100
AcDbScale
 70
     0
300
3/16" = 1'-0"
140
0.1875
141
12.0
290
     0
  0
SCALE
  5
60
102
{ACAD_REACTORS
330
47
102
}
330
47
100
AcDbScale
 70
     0
300
1/4" = 1'-0"
140
0.25
141
12.0
290
     0
  0
SCALE
  5
61
102
{ACAD_REACTORS
330
47
102
}
330
47
100
AcDbScale
 70
     0
300
3/8" = 1'-0"
140
0.375
141
12.0
290
     0
  0
SCALE
  5
62
102
{ACAD_REACTORS
330
47
102
}
330
47
100
AcDbScale
 70
     0
300
1/2" = 1'-0"
140
0.5
141
12.0
290
     0
  0
SCALE
  5
63
102
{ACAD_REACTORS
330
47
102
}
330
47
100
AcDbScale
 70
     0
300
3/4" = 1'-0"
140
0.75
141
12.0
290
     0
  0
SCALE
  5
64
102
{ACAD_REACTORS
330
47
102
}
330
47
100
AcDbScale
 70
     0
300
1" = 1'-0"
140
1.0
141
12.0
290
     0
  0
SCALE
  5
65
102
{ACAD_REACTORS
330
47
102
}
330
47
100
AcDbScale
 70
     0
300
1-1/2" = 1'-0"
140
1.5
141
12.0
290
     0
  0
SCALE
  5
66
102
{ACAD_REACTORS
330
47
102
}
330
47
100
AcDbScale
 70
     0
300
3" = 1'-0"
140
3.0
141
12.0
290
     0
  0
SCALE
  5
67
102
{ACAD_REACTORS
330
47
102
}
330
47
100
AcDbScale
 70
     0
300
6" = 1'-0"
140
6.0
141
12.0
290
     0
  0
SCALE
  5
68
102
{ACAD_REACTORS
330
47
102
}
330
47
100
AcDbScale
 70
     0
300
1'-0" = 1'-0"
140
12.0
141
12.0
290
     0
  0
TABLESTYLE
  5
6A
102
{ACAD_REACTORS
330
69
102
}
102
{ACAD_XDICTIONARY
360
117
102
}
330
69
100
AcDbTableStyle
  3
Standard
 70
     0
 71
     0
 40
0.06
 41
0.06
280
     0
281
     0
  7
Standard
140
0.18
170
     2
 62
     0
 63
   257
283
     0
 90
        4
 91
        0
  1

274
    -2
284
     1
 64
     0
275
    -2
285
     1
 65
     0
276
    -2
286
     1
 66
     0
277
    -2
287
     1
 67
     0
278
    -2
288
     1
 68
     0
279
    -2
289
     1
 69
     0
  7
Standard
140
0.25
170
     5
 62
     0
 63
   257
283
     0
 90
        4
 91
        0
  1

274
    -2
284
     1
 64
     0
275
    -2
285
     1
 65
     0
276
    -2
286
     1
 66
     0
277
    -2
287
     1
 67
     0
278
    -2
288
     1
 68
     0
279
    -2
289
     1
 69
     0
  7
Standard
140
0.18
170
     5
 62
     0
 63
   257
283
     0
 90
        4
 91
        0
  1

274
    -2
284
     1
 64
     0
275
    -2
285
     1
 65
     0
276
    -2
286
     1
 66
     0
277
    -2
287
     1
 67
     0
278
    -2
288
     1
 68
     0
279
    -2
289
     1
 69
     0
  0
VISUALSTYLE
  5
2F
102
{ACAD_REACTORS
330
2A
102
}
330
2A
100
AcDbVisualStyle
  2
2dWireframe
 70
     4
177
     3
291
     0
 70
    58
 90
        0
176
     1
 90
        2
176
     1
 90
        0
176
     1
 90
        0
176
     1
 40
0.6
176
     1
 40
30.0
176
     1
 62
     7
420
 16777215
176
     1
 90
        1
176
     1
 90
        4
176
     1
 62
     7
176
     1
 62
   257
176
     1
 90
        1
176
     1
 90
        1
176
     1
 40
1.0
176
     1
 90
        0
176
     1
 62
   257
176
     1
 40
1.0
176
     1
 90
        1
176
     1
 90
        6
176
     1
 90
        2
176
     1
 62
     7
176
     1
 90
        5
176
     1
 90
        0
176
     1
 90
        0
176
     1
290
     0
176
     1
 90
        1
176
     1
 40
0.0
176
     1
 90
        0
176
     1
290
     1
176
     1
290
     1
176
     1
290
     0
176
     1
290
     0
176
     1
290
     0
176
     1
290
     0
176
     1
290
     0
176
     1
290
     0
176
     1
290
     0
176
     1
 90
       50
176
     1
 40
0.0
176
     1
 40
1.0
176
     1
 90
        0
176
     1
 62
    18
420
        0
176
     1
 90
       50
176
     1
 90
        3
176
     1
 62
     5
420
      255
176
     1
290
     0
176
     1
 90
       50
176
     1
 90
       50
176
     1
 90
       50
176
     1
290
     0
176
     1
 90
       50
176
     1
 62
   256
176
     0
 40
1.0
176
     0
 90
        2
176
     1
  1
strokes_ogs.tif
176
     1
290
     0
176
     1
 40
1.0
176
     1
 40
1.0
176
     1
  0
VISUALSTYLE
  5
32
102
{ACAD_REACTORS
330
2A
102
}
330
2A
100
AcDbVisualStyle
  2
Basic
 70
     7
177
     3
291
     1
 70
    58
 90
        1
176
     1
 90
        0
176
     1
 90
        1
176
     1
 90
        0
176
     1
 40
0.6
176
     1
 40
30.0
176
     1
 62
     7
420
 16777215
176
     1
 90
        0
176
     1
 90
        4
176
     1
 62
     7
176
     1
 62
   257
176
     1
 90
        1
176
     1
 90
        1
176
     1
 40
1.0
176
     1
 90
        8
176
     1
 62
     7
176
     1
 40
1.0
176
     1
 90
        1
176
     1
 90
        6
176
     1
 90
        2
176
     1
 62
     7
176
     1
 90
        5
176
     1
 90
        0
176
     1
 90
        0
176
     1
290
     0
176
     1
 90
        1
176
     1
 40
0.0
176
     1
 90
        0
176
     1
290
     0
176
     1
290
     1
176
     1
290
     1
176
     1
290
     0
176
     1
290
     0
176
     1
290
     0
176
     1
290
     0
176
     1
290
     0
176
     1
290
     0
176
     1
 90
       50
176
     1
 40
0.0
176
     1
 40
1.0
176
     1
 90
        0
176
     1
 62
    18
420
        0
176
     1
 90
       50
176
     1
 90
        3
176
     1
 62
     5
420
      255
176
     1
290
     0
176
     1
 90
       50
176
     1
 90
       50
176
     1
 90
       50
176
     1
290
     0
176
     1
 90
       50
176
     1
 62
   256
176
     0
 40
1.0
176
     0
 90
        2
176
     1
  1
strokes_ogs.tif
176
     1
290
     0
176
     1
 40
1.0
176
     1
 40
1.0
176
     1
  0
VISUALSTYLE
  5
36
102
{ACAD_REACTORS
330
2A
102
}
330
2A
100
AcDbVisualStyle
  2
Brighten
 70
    12
177
     3
291
     1
 70
    58
 90
        2
176
     1
 90
        2
176
     1
 90
        0
176
     1
 90
        0
176
     1
 40
0.6
176
     1
 40
30.0
176
     1
 62
     7
420
 16777215
176
     1
 90
        1
176
     1
 90
        4
176
     1
 62
     7
176
     1
 62
   257
176
     1
 90
        1
176
     1
 90
        1
176
     1
 40
1.0
176
     1
 90
        8
176
     1
 62
     7
176
     1
 40
1.0
176
     1
 90
        1
176
     1
 90
        6
176
     1
 90
        2
176
     1
 62
     7
176
     1
 90
        5
176
     1
 90
        0
176
     1
 90
        0
176
     1
290
     0
176
     1
 90
        1
176
     1
 40
50.0
176
     1
 90
        0
176
     1
290
     0
176
     1
290
     1
176
     1
290
     1
176
     1
290
     0
176
     1
290
     0
176
     1
290
     0
176
     1
290
     0
176
     1
290
     0
176
     1
290
     0
176
     1
 90
       50
176
     1
 40
0.0
176
     1
 40
1.0
176
     1
 90
        0
176
     1
 62
    18
420
        0
176
     1
 90
       50
176
     1
 90
        3
176
     1
 62
     5
420
      255
176
     1
290
     0
176
     1
 90
       50
176
     1
 90
       50
176
     1
 90
       50
176
     1
290
     0
176
     1
 90
       50
176
     1
 62
   256
176
     0
 40
1.0
176
     0
 90
        2
176
     1
  1
strokes_ogs.tif
176
     1
290
     0
176
     1
 40
1.0
176
     1
 40
1.0
176
     1
  0
VISUALSTYLE
  5
3A
102
{ACAD_REACTORS
330
2A
102
}
330
2A
100
AcDbVisualStyle
  2
ColorChange
 70
    16
177
     3
291
     1
 70
    58
 90
        2
176
     1
 90
        2
176
     1
 90
        3
176
     1
 90
        0
176
     1
 40
0.6
176
     1
 40
30.0
176
     1
 62
     8
420
  8421504
176
     1
 90
        1
176
     1
 90
        4
176
     1
 62
     7
176
     1
 62
   257
176
     1
 90
        1
176
     1
 90
        1
176
     1
 40
1.0
176
     1
 90
        8
176
     1
 62
     8
420
  8421504
176
     1
 40
1.0
176
     1
 90
        1
176
     1
 90
        6
176
     1
 90
        2
176
     1
 62
     7
176
     1
 90
        5
176
     1
 90
        0
176
     1
 90
        0
176
     1
290
     0
176
     1
 90
        1
176
     1
 40
0.0
176
     1
 90
        0
176
     1
290
     0
176
     1
290
     1
176
     1
290
     1
176
     1
290
     0
176
     1
290
     0
176
     1
290
     0
176
     1
290
     0
176
     1
290
     0
176
     1
290
     0
176
     1
 90
       50
176
     1
 40
0.0
176
     1
 40
1.0
176
     1
 90
        0
176
     1
 62
    18
420
        0
176
     1
 90
       50
176
     1
 90
        3
176
     1
 62
     5
420
      255
176
     1
290
     0
176
     1
 90
       50
176
     1
 90
       50
176
     1
 90
       50
176
     1
290
     0
176
     1
 90
       50
176
     1
 62
   256
176
     0
 40
1.0
176
     0
 90
        2
176
     1
  1
strokes_ogs.tif
176
     1
290
     0
176
     1
 40
1.0
176
     1
 40
1.0
176
     1
  0
VISUALSTYLE
  5
34
102
{ACAD_REACTORS
330
2A
102
}
330
2A
100
AcDbVisualStyle
  2
Conceptual
 70
     9
177
     3
291
     0
 70
    58
 90
        3
176
     1
 90
        2
176
     1
 90
        0
176
     1
 90
        0
176
     1
 40
0.6
176
     1
 40
30.0
176
     1
 62
     7
420
 16777215
176
     1
 90
        2
176
     1
 90
        2
176
     1
 62
     7
176
     1
 62
   257
176
     1
 90
        1
176
     1
 90
        1
176
     1
 40
179.0
176
     1
 90
        8
176
     1
 62
     7
176
     1
 40
1.0
176
     1
 90
        1
176
     1
 90
        6
176
     1
 90
        2
176
     1
 62
     7
176
     1
 90
        3
176
     1
 90
        0
176
     1
 90
        0
176
     1
290
     0
176
     1
 90
        1
176
     1
 40
0.0
176
     1
 90
        0
176
     1
290
     0
176
     1
290
     1
176
     1
290
     1
176
     1
290
     0
176
     1
290
     0
176
     1
290
     0
176
     1
290
     0
176
     1
290
     0
176
     1
290
     0
176
     1
 90
       50
176
     1
 40
0.0
176
     1
 40
1.0
176
     1
 90
        0
176
     1
 62
    18
420
        0
176
     1
 90
       50
176
     1
 90
        3
176
     1
 62
     5
420
      255
176
     1
290
     0
176
     1
 90
       50
176
     1
 90
       50
176
     1
 90
       50
176
     1
290
     0
176
     1
 90
       50
176
     1
 62
   256
176
     0
 40
1.0
176
     0
 90
        2
176
     1
  1
strokes_ogs.tif
176
     1
290
     0
176
     1
 40
1.0
176
     1
 40
1.0
176
     1
  0
VISUALSTYLE
  5
35
102
{ACAD_REACTORS
330
2A
102
}
330
2A
100
AcDbVisualStyle
  2
Dim
 70
    11
177
     3
291
     1
 70
    58
 90
        2
176
     1
 90
        2
176
     1
 90
        0
176
     1
 90
        0
176
     1
 40
0.6
176
     1
 40
30.0
176
     1
 62
     7
420
 16777215
176
     1
 90
        1
176
     1
 90
        4
176
     1
 62
     7
176
     1
 62
   257
176
     1
 90
        1
176
     1
 90
        1
176
     1
 40
1.0
176
     1
 90
        8
176
     1
 62
     7
176
     1
 40
1.0
176
     1
 90
        1
176
     1
 90
        6
176
     1
 90
        2
176
     1
 62
     7
176
     1
 90
        5
176
     1
 90
        0
176
     1
 90
        0
176
     1
290
     0
176
     1
 90
        1
176
     1
 40
-50.0
176
     1
 90
        0
176
     1
290
     0
176
     1
290
     1
176
     1
290
     1
176
     1
290
     0
176
     1
290
     0
176
     1
290
     0
176
     1
290
     0
176
     1
290
     0
176
     1
290
     0
176
     1
 90
       50
176
     1
 40
0.0
176
     1
 40
1.0
176
     1
 90
        0
176
     1
 62
    18
420
        0
176
     1
 90
       50
176
     1
 90
        3
176
     1
 62
     5
420
      255
176
     1
290
     0
176
     1
 90
       50
176
     1
 90
       50
176
     1
 90
       50
176
     1
290
     0
176
     1
 90
       50
176
     1
 62
   256
176
     0
 40
1.0
176
     0
 90
        2
176
     1
  1
strokes_ogs.tif
176
     1
290
     0
176
     1
 40
1.0
176
     1
 40
1.0
176
     1
  0
VISUALSTYLE
  5
3D
102
{ACAD_REACTORS
330
2A
102
}
330
2A
100
AcDbVisualStyle
  2
EdgeColorOff
 70
    22
177
     3
291
     1
 70
    58
 90
        2
176
     0
 90
        2
176
     0
 90
        0
176
     0
 90
        0
176
     0
 40
0.6
176
     0
 40
30.0
176
     0
 62
     7
420
 16777215
176
     0
 90
        1
176
     0
 90
        4
176
     0
 62
     7
176
     0
 62
   257
176
     0
 90
        1
176
     0
 90
        1
176
     0
 40
1.0
176
     0
 90
        8
176
     2
 62
     7
176
     0
 40
1.0
176
     0
 90
        1
176
     0
 90
        6
176
     0
 90
        2
176
     0
 62
     7
176
     0
 90
        5
176
     0
 90
        0
176
     0
 90
        0
176
     0
290
     0
176
     0
 90
        1
176
     0
 40
0.0
176
     0
 90
        0
176
     0
290
     0
176
     0
290
     1
176
     0
290
     1
176
     0
290
     0
176
     0
290
     0
176
     0
290
     0
176
     0
290
     0
176
     0
290
     0
176
     0
290
     0
176
     0
 90
       50
176
     0
 40
0.0
176
     0
 40
1.0
176
     0
 90
        0
176
     0
 62
    18
420
        0
176
     0
 90
       50
176
     0
 90
        3
176
     0
 62
     5
420
      255
176
     0
290
     0
176
     0
 90
       50
176
     0
 90
       50
176
     0
 90
       50
176
     0
290
     0
176
     0
 90
       50
176
     0
 62
   256
176
     0
 40
1.0
176
     0
 90
        2
176
     0
  1
strokes_ogs.tif
176
     0
290
     0
176
     0
 40
1.0
176
     0
 40
1.0
176
     0
  0
VISUALSTYLE
  5
39
102
{ACAD_REACTORS
330
2A
102
}
330
2A
100
AcDbVisualStyle
  2
Facepattern
 70
    15
177
     3
291
     1
 70
    58
 90
        2
176
     1
 90
        2
176
     1
 90
        0
176
     1
 90
        0
176
     1
 40
0.6
176
     1
 40
30.0
176
     1
 62
     7
420
 16777215
176
     1
 90
        1
176
     1
 90
        4
176
     1
 62
     7
176
     1
 62
   257
176
     1
 90
        1
176
     1
 90
        1
176
     1
 40
1.0
176
     1
 90
        8
176
     1
 62
     7
176
     1
 40
1.0
176
     1
 90
        1
176
     1
 90
        6
176
     1
 90
        2
176
     1
 62
     7
176
     1
 90
        5
176
     1
 90
        0
176
     1
 90
        0
176
     1
290
     0
176
     1
 90
        1
176
     1
 40
0.0
176
     1
 90
        0
176
     1
290
     0
176
     1
290
     1
176
     1
290
     1
176
     1
290
     0
176
     1
290
     0
176
     1
290
     0
176
     1
290
     0
176
     1
290
     0
176
     1
290
     0
176
     1
 90
       50
176
     1
 40
0.0
176
     1
 40
1.0
176
     1
 90
        0
176
     1
 62
    18
420
        0
176
     1
 90
       50
176
     1
 90
        3
176
     1
 62
     5
420
      255
176
     1
290
     0
176
     1
 90
       50
176
     1
 90
       50
176
     1
 90
       50
176
     1
290
     0
176
     1
 90
       50
176
     1
 62
   256
176
     0
 40
1.0
176
     0
 90
        2
176
     1
  1
strokes_ogs.tif
176
     1
290
     0
176
     1
 40
1.0
176
     1
 40
1.0
176
     1
  0
VISUALSTYLE
  5
2B
102
{ACAD_REACTORS
330
2A
102
}
330
2A
100
AcDbVisualStyle
  2
Flat
 70
     0
177
     3
291
     1
 70
    58
 90
        2
176
     1
 90
        1
176
     1
 90
        1
176
     1
 90
        2
176
     1
 40
0.6
176
     1
 40
30.0
176
     1
 62
     7
420
 16777215
176
     1
 90
        0
176
     1
 90
        0
176
     1
 62
     7
176
     1
 62
   257
176
     1
 90
        1
176
     1
 90
        1
176
     1
 40
1.0
176
     1
 90
        8
176
     1
 62
     7
176
     1
 40
1.0
176
     1
 90
        1
176
     1
 90
        6
176
     1
 90
        2
176
     1
 62
     7
176
     1
 90
        5
176
     1
 90
        0
176
     1
 90
        0
176
     1
290
     0
176
     1
 90
       13
176
     1
 40
0.0
176
     1
 90
        0
176
     1
290
     0
176
     1
290
     1
176
     1
290
     1
176
     1
290
     0
176
     1
290
     0
176
     1
290
     0
176
     1
290
     0
176
     1
290
     0
176
     1
290
     0
176
     1
 90
       50
176
     1
 40
0.0
176
     1
 40
1.0
176
     1
 90
        0
176
     1
 62
    18
420
        0
176
     1
 90
       50
176
     1
 90
        3
176
     1
 62
     5
420
      255
176
     1
290
     0
176
     1
 90
       50
176
     1
 90
       50
176
     1
 90
       50
176
     1
290
     0
176
     1
 90
       50
176
     1
 62
   256
176
     0
 40
1.0
176
     0
 90
        2
176
     1
  1
strokes_ogs.tif
176
     1
290
     0
176
     1
 40
1.0
176
     1
 40
1.0
176
     1
  0
VISUALSTYLE
  5
2C
102
{ACAD_REACTORS
330
2A
102
}
330
2A
100
AcDbVisualStyle
  2
FlatWithEdges
 70
     1
177
     3
291
     1
 70
    58
 90
        2
176
     1
 90
        1
176
     1
 90
        1
176
     1
 90
        2
176
     1
 40
0.6
176
     1
 40
30.0
176
     1
 62
     7
420
 16777215
176
     1
 90
        1
176
     1
 90
        0
176
     1
 62
     7
176
     1
 62
   257
176
     1
 90
        1
176
     1
 90
        1
176
     1
 40
1.0
176
     1
 90
        0
176
     1
 62
   257
176
     1
 40
1.0
176
     1
 90
        1
176
     1
 90
        6
176
     1
 90
        2
176
     1
 62
     7
176
     1
 90
        5
176
     1
 90
        0
176
     1
 90
        0
176
     1
290
     0
176
     1
 90
       13
176
     1
 40
0.0
176
     1
 90
        0
176
     1
290
     0
176
     1
290
     1
176
     1
290
     1
176
     1
290
     0
176
     1
290
     0
176
     1
290
     0
176
     1
290
     0
176
     1
290
     0
176
     1
290
     0
176
     1
 90
       50
176
     1
 40
0.0
176
     1
 40
1.0
176
     1
 90
        0
176
     1
 62
    18
420
        0
176
     1
 90
       50
176
     1
 90
        3
176
     1
 62
     5
420
      255
176
     1
290
     0
176
     1
 90
       50
176
     1
 90
       50
176
     1
 90
       50
176
     1
290
     0
176
     1
 90
       50
176
     1
 62
   256
176
     0
 40
1.0
176
     0
 90
        2
176
     1
  1
strokes_ogs.tif
176
     1
290
     0
176
     1
 40
1.0
176
     1
 40
1.0
176
     1
  0
VISUALSTYLE
  5
2D
102
{ACAD_REACTORS
330
2A
102
}
330
2A
100
AcDbVisualStyle
  2
Gouraud
 70
     2
177
     3
291
     1
 70
    58
 90
        2
176
     1
 90
        2
176
     1
 90
        1
176
     1
 90
        2
176
     1
 40
0.6
176
     1
 40
30.0
176
     1
 62
     7
420
 16777215
176
     1
 90
        0
176
     1
 90
        0
176
     1
 62
     7
176
     1
 62
   257
176
     1
 90
        1
176
     1
 90
        1
176
     1
 40
1.0
176
     1
 90
        0
176
     1
 62
     7
176
     1
 40
1.0
176
     1
 90
        1
176
     1
 90
        6
176
     1
 90
        2
176
     1
 62
     7
176
     1
 90
        5
176
     1
 90
        0
176
     1
 90
        0
176
     1
290
     0
176
     1
 90
       13
176
     1
 40
0.0
176
     1
 90
        0
176
     1
290
     0
176
     1
290
     1
176
     1
290
     1
176
     1
290
     0
176
     1
290
     0
176
     1
290
     0
176
     1
290
     0
176
     1
290
     0
176
     1
290
     0
176
     1
 90
       50
176
     1
 40
0.0
176
     1
 40
1.0
176
     1
 90
        0
176
     1
 62
    18
420
        0
176
     1
 90
       50
176
     1
 90
        3
176
     1
 62
     5
420
      255
176
     1
290
     0
176
     1
 90
       50
176
     1
 90
       50
176
     1
 90
       50
176
     1
290
     0
176
     1
 90
       50
176
     1
 62
   256
176
     0
 40
1.0
176
     0
 90
        2
176
     1
  1
strokes_ogs.tif
176
     1
290
     0
176
     1
 40
1.0
176
     1
 40
1.0
176
     1
  0
VISUALSTYLE
  5
2E
102
{ACAD_REACTORS
330
2A
102
}
330
2A
100
AcDbVisualStyle
  2
GouraudWithEdges
 70
     3
177
     3
291
     1
 70
    58
 90
        2
176
     1
 90
        2
176
     1
 90
        1
176
     1
 90
        2
176
     1
 40
0.6
176
     1
 40
30.0
176
     1
 62
     7
420
 16777215
176
     1
 90
        1
176
     1
 90
        0
176
     1
 62
     7
176
     1
 62
   257
176
     1
 90
        1
176
     1
 90
        1
176
     1
 40
1.0
176
     1
 90
        0
176
     1
 62
   257
176
     1
 40
1.0
176
     1
 90
        1
176
     1
 90
        6
176
     1
 90
        2
176
     1
 62
     7
176
     1
 90
        5
176
     1
 90
        0
176
     1
 90
        0
176
     1
290
     0
176
     1
 90
       13
176
     1
 40
0.0
176
     1
 90
        0
176
     1
290
     0
176
     1
290
     1
176
     1
290
     1
176
     1
290
     0
176
     1
290
     0
176
     1
290
     0
176
     1
290
     0
176
     1
290
     0
176
     1
290
     0
176
     1
 90
       50
176
     1
 40
0.0
176
     1
 40
1.0
176
     1
 90
        0
176
     1
 62
    18
420
        0
176
     1
 90
       50
176
     1
 90
        3
176
     1
 62
     5
420
      255
176
     1
290
     0
176
     1
 90
       50
176
     1
 90
       50
176
     1
 90
       50
176
     1
290
     0
176
     1
 90
       50
176
     1
 62
   256
176
     0
 40
1.0
176
     0
 90
        2
176
     1
  1
strokes_ogs.tif
176
     1
290
     0
176
     1
 40
1.0
176
     1
 40
1.0
176
     1
  0
VISUALSTYLE
  5
31
102
{ACAD_REACTORS
330
2A
102
}
330
2A
100
AcDbVisualStyle
  2
Hidden
 70
     6
177
     3
291
     0
 70
    58
 90
        1
176
     1
 90
        2
176
     1
 90
        2
176
     1
 90
        0
176
     1
 40
0.6
176
     1
 40
30.0
176
     1
 62
     7
420
 16777215
176
     1
 90
        2
176
     1
 90
        2
176
     1
 62
     7
176
     1
 62
   257
176
     1
 90
        2
176
     1
 90
        1
176
     1
 40
40.0
176
     1
 90
        0
176
     1
 62
   257
176
     1
 40
1.0
176
     1
 90
        1
176
     1
 90
        6
176
     1
 90
        2
176
     1
 62
     7
176
     1
 90
        3
176
     1
 90
        0
176
     1
 90
        0
176
     1
290
     0
176
     1
 90
        1
176
     1
 40
0.0
176
     1
 90
        0
176
     1
290
     0
176
     1
290
     1
176
     1
290
     1
176
     1
290
     0
176
     1
290
     0
176
     1
290
     0
176
     1
290
     0
176
     1
290
     0
176
     1
290
     0
176
     1
 90
       50
176
     1
 40
0.0
176
     1
 40
1.0
176
     1
 90
        0
176
     1
 62
    18
420
        0
176
     1
 90
       50
176
     1
 90
        3
176
     1
 62
     5
420
      255
176
     1
290
     0
176
     1
 90
       50
176
     1
 90
       50
176
     1
 90
       50
176
     1
290
     0
176
     1
 90
       50
176
     1
 62
   256
176
     0
 40
1.0
176
     0
 90
        2
176
     1
  1
strokes_ogs.tif
176
     1
290
     0
176
     1
 40
1.0
176
     1
 40
1.0
176
     1
  0
VISUALSTYLE
  5
3B
102
{ACAD_REACTORS
330
2A
102
}
330
2A
100
AcDbVisualStyle
  2
JitterOff
 70
    20
177
     3
291
     1
 70
    58
 90
        2
176
     0
 90
        2
176
     0
 90
        0
176
     0
 90
        0
176
     0
 40
0.6
176
     0
 40
30.0
176
     0
 62
     7
420
 16777215
176
     0
 90
        1
176
     0
 90
        4
176
     0
 62
     7
176
     0
 62
   257
176
     0
 90
        1
176
     0
 90
        1
176
     0
 40
1.0
176
     0
 90
       10
176
     2
 62
     7
176
     0
 40
1.0
176
     0
 90
        1
176
     0
 90
        6
176
     0
 90
        2
176
     0
 62
     7
176
     0
 90
        5
176
     0
 90
        0
176
     0
 90
        0
176
     0
290
     0
176
     0
 90
        1
176
     0
 40
0.0
176
     0
 90
        0
176
     0
290
     0
176
     0
290
     1
176
     0
290
     1
176
     0
290
     0
176
     0
290
     0
176
     0
290
     0
176
     0
290
     0
176
     0
290
     0
176
     0
290
     0
176
     0
 90
       50
176
     0
 40
0.0
176
     0
 40
1.0
176
     0
 90
        0
176
     0
 62
    18
420
        0
176
     0
 90
       50
176
     0
 90
        3
176
     0
 62
     5
420
      255
176
     0
290
     0
176
     0
 90
       50
176
     0
 90
       50
176
     0
 90
       50
176
     0
290
     0
176
     0
 90
       50
176
     0
 62
   256
176
     0
 40
1.0
176
     0
 90
        2
176
     0
  1
strokes_ogs.tif
176
     0
290
     0
176
     0
 40
1.0
176
     0
 40
1.0
176
     0
  0
VISUALSTYLE
  5
38
102
{ACAD_REACTORS
330
2A
102
}
330
2A
100
AcDbVisualStyle
  2
Linepattern
 70
    14
177
     3
291
     1
 70
    58
 90
        2
176
     1
 90
        2
176
     1
 90
        0
176
     1
 90
        0
176
     1
 40
0.6
176
     1
 40
30.0
176
     1
 62
     7
420
 16777215
176
     1
 90
        1
176
     1
 90
        4
176
     1
 62
     7
176
     1
 62
   257
176
     1
 90
        7
176
     1
 90
        7
176
     1
 40
1.0
176
     1
 90
        8
176
     1
 62
     7
176
     1
 40
1.0
176
     1
 90
        1
176
     1
 90
        6
176
     1
 90
        2
176
     1
 62
     7
176
     1
 90
        5
176
     1
 90
        0
176
     1
 90
        0
176
     1
290
     0
176
     1
 90
        1
176
     1
 40
0.0
176
     1
 90
        0
176
     1
290
     0
176
     1
290
     1
176
     1
290
     1
176
     1
290
     0
176
     1
290
     0
176
     1
290
     0
176
     1
290
     0
176
     1
290
     0
176
     1
290
     0
176
     1
 90
       50
176
     1
 40
0.0
176
     1
 40
1.0
176
     1
 90
        0
176
     1
 62
    18
420
        0
176
     1
 90
       50
176
     1
 90
        3
176
     1
 62
     5
420
      255
176
     1
290
     0
176
     1
 90
       50
176
     1
 90
       50
176
     1
 90
       50
176
     1
290
     0
176
     1
 90
       50
176
     1
 62
   256
176
     0
 40
1.0
176
     0
 90
        2
176
     1
  1
strokes_ogs.tif
176
     1
290
     0
176
     1
 40
1.0
176
     1
 40
1.0
176
     1
  0
VISUALSTYLE
  5
3C
102
{ACAD_REACTORS
330
2A
102
}
330
2A
100
AcDbVisualStyle
  2
OverhangOff
 70
    21
177
     3
291
     1
 70
    58
 90
        2
176
     0
 90
        2
176
     0
 90
        0
176
     0
 90
        0
176
     0
 40
0.6
176
     0
 40
30.0
176
     0
 62
     7
420
 16777215
176
     0
 90
        1
176
     0
 90
        4
176
     0
 62
     7
176
     0
 62
   257
176
     0
 90
        1
176
     0
 90
        1
176
     0
 40
1.0
176
     0
 90
        9
176
     2
 62
     7
176
     0
 40
1.0
176
     0
 90
        1
176
     0
 90
        6
176
     0
 90
        2
176
     0
 62
     7
176
     0
 90
        5
176
     0
 90
        0
176
     0
 90
        0
176
     0
290
     0
176
     0
 90
        1
176
     0
 40
0.0
176
     0
 90
        0
176
     0
290
     0
176
     0
290
     1
176
     0
290
     1
176
     0
290
     0
176
     0
290
     0
176
     0
290
     0
176
     0
290
     0
176
     0
290
     0
176
     0
290
     0
176
     0
 90
       50
176
     0
 40
0.0
176
     0
 40
1.0
176
     0
 90
        0
176
     0
 62
    18
420
        0
176
     0
 90
       50
176
     0
 90
        3
176
     0
 62
     5
420
      255
176
     0
290
     0
176
     0
 90
       50
176
     0
 90
       50
176
     0
 90
       50
176
     0
290
     0
176
     0
 90
       50
176
     0
 62
   256
176
     0
 40
1.0
176
     0
 90
        2
176
     0
  1
strokes_ogs.tif
176
     0
290
     0
176
     0
 40
1.0
176
     0
 40
1.0
176
     0
  0
VISUALSTYLE
  5
33
102
{ACAD_REACTORS
330
2A
102
}
330
2A
100
AcDbVisualStyle
  2
Realistic
 70
     8
177
     3
291
     0
 70
    58
 90
        2
176
     1
 90
        3
176
     1
 90
        0
176
     1
 90
        2
176
     1
 40
0.6
176
     1
 40
30.0
176
     1
 62
     7
420
 16777215
176
     1
 90
        0
176
     1
 90
        0
176
     1
 62
     7
176
     1
 62
   257
176
     1
 90
        1
176
     1
 90
        1
176
     1
 40
1.0
176
     1
 90
        8
176
     1
 62
   257
176
     1
 40
1.0
176
     1
 90
        1
176
     1
 90
        6
176
     1
 90
        2
176
     1
 62
     7
176
     1
 90
        3
176
     1
 90
        0
176
     1
 90
        0
176
     1
290
     0
176
     1
 90
       13
176
     1
 40
0.0
176
     1
 90
        0
176
     1
290
     0
176
     1
290
     1
176
     1
290
     1
176
     1
290
     0
176
     1
290
     0
176
     1
290
     0
176
     1
290
     0
176
     1
290
     0
176
     1
290
     0
176
     1
 90
       50
176
     1
 40
0.0
176
     1
 40
1.0
176
     1
 90
        0
176
     1
 62
    18
420
        0
176
     1
 90
       50
176
     1
 90
        3
176
     1
 62
     5
420
      255
176
     1
290
     0
176
     1
 90
       50
176
     1
 90
       50
176
     1
 90
       50
176
     1
290
     0
176
     1
 90
       50
176
     1
 62
   256
176
     0
 40
1.0
176
     0
 90
        2
176
     1
  1
strokes_ogs.tif
176
     1
290
     0
176
     1
 40
1.0
176
     1
 40
1.0
176
     1
  0
VISUALSTYLE
  5
42
102
{ACAD_REACTORS
330
2A
102
}
330
2A
100
AcDbVisualStyle
  2
Shaded
 70
    27
177
     3
291
     0
 70
    58
 90
        2
176
     1
 90
        2
176
     1
 90
        1
176
     1
 90
        2
176
     1
 40
0.6
176
     1
 40
30.0
176
     1
 62
     7
420
 16777215
176
     1
 90
        0
176
     1
 90
        4
176
     1
 62
     7
176
     1
 62
   257
176
     1
 90
        1
176
     1
 90
        1
176
     1
 40
1.0
176
     1
 90
        8
176
     1
 62
   257
176
     1
 40
1.0
176
     1
 90
        1
176
     1
 90
        6
176
     1
 90
        2
176
     1
 62
     8
420
  7895160
176
     1
 90
        3
176
     1
 90
        0
176
     1
 90
        0
176
     1
290
     0
176
     1
 90
        5
176
     1
 40
0.0
176
     1
 90
        0
176
     1
290
     0
176
     1
290
     1
176
     1
290
     1
176
     1
290
     0
176
     1
290
     0
176
     1
290
     0
176
     1
290
     0
176
     1
290
     0
176
     1
290
     0
176
     1
 90
       50
176
     1
 40
0.0
176
     1
 40
1.0
176
     1
 90
        0
176
     1
 62
    18
420
        0
176
     1
 90
       50
176
     1
 90
        3
176
     1
 62
     5
420
      255
176
     1
290
     0
176
     1
 90
       50
176
     1
 90
       50
176
     1
 90
       50
176
     1
290
     0
176
     1
 90
       50
176
     1
 62
   256
176
     0
 40
1.0
176
     0
 90
        2
176
     1
  1
strokes_ogs.tif
176
     1
290
     0
176
     1
 40
1.0
176
     1
 40
1.0
176
     1
  0
VISUALSTYLE
  5
41
102
{ACAD_REACTORS
330
2A
102
}
330
2A
100
AcDbVisualStyle
  2
Shaded with edges
 70
    26
177
     3
291
     0
 70
    58
 90
        2
176
     1
 90
        2
176
     1
 90
        1
176
     1
 90
        2
176
     1
 40
0.6
176
     1
 40
30.0
176
     1
 62
     7
420
 16777215
176
     1
 90
        1
176
     1
 90
       10
176
     1
 62
     7
176
     1
 62
   257
176
     1
 90
        2
176
     1
 90
        1
176
     1
 40
1.0
176
     1
 90
        8
176
     1
 62
   257
176
     1
 40
1.0
176
     1
 90
        1
176
     1
 90
        6
176
     1
 90
        2
176
     1
 62
     7
176
     1
 90
        3
176
     1
 90
        0
176
     1
 90
        0
176
     1
290
     0
176
     1
 90
        5
176
     1
 40
0.0
176
     1
 90
        0
176
     1
290
     0
176
     1
290
     1
176
     1
290
     1
176
     1
290
     0
176
     1
290
     0
176
     1
290
     0
176
     1
290
     0
176
     1
290
     0
176
     1
290
     0
176
     1
 90
       50
176
     1
 40
0.0
176
     1
 40
1.0
176
     1
 90
        0
176
     1
 62
    18
420
        0
176
     1
 90
       50
176
     1
 90
        3
176
     1
 62
     5
420
      255
176
     1
290
     0
176
     1
 90
       50
176
     1
 90
       50
176
     1
 90
       50
176
     1
290
     0
176
     1
 90
       50
176
     1
 62
   256
176
     0
 40
1.0
176
     0
 90
        2
176
     1
  1
strokes_ogs.tif
176
     1
290
     0
176
     1
 40
1.0
176
     1
 40
1.0
176
     1
  0
VISUALSTYLE
  5
3E
102
{ACAD_REACTORS
330
2A
102
}
330
2A
100
AcDbVisualStyle
  2
Shades of Gray
 70
    23
177
     3
291
     0
 70
    58
 90
        2
176
     1
 90
        2
176
     1
 90
        3
176
     1
 90
        0
176
     1
 40
0.6
176
     1
 40
30.0
176
     1
 62
     7
420
 16777215
176
     1
 90
        2
176
     1
 90
        2
176
     1
 62
     7
176
     1
 62
     7
176
     1
 90
        1
176
     1
 90
        1
176
     1
 40
40.0
176
     1
 90
        8
176
     1
 62
     7
176
     1
 40
1.0
176
     1
 90
        1
176
     1
 90
        6
176
     1
 90
        2
176
     1
 62
     7
176
     1
 90
        3
176
     1
 90
        0
176
     1
 90
        0
176
     1
290
     0
176
     1
 90
        1
176
     1
 40
0.0
176
     1
 90
        0
176
     1
290
     0
176
     1
290
     1
176
     1
290
     1
176
     1
290
     0
176
     1
290
     0
176
     1
290
     0
176
     1
290
     0
176
     1
290
     0
176
     1
290
     0
176
     1
 90
       50
176
     1
 40
0.0
176
     1
 40
1.0
176
     1
 90
        0
176
     1
 62
    18
420
        0
176
     1
 90
       50
176
     1
 90
        3
176
     1
 62
     5
420
      255
176
     1
290
     0
176
     1
 90
       50
176
     1
 90
       50
176
     1
 90
       50
176
     1
290
     0
176
     1
 90
       50
176
     1
 62
   256
176
     0
 40
1.0
176
     0
 90
        2
176
     1
  1
strokes_ogs.tif
176
     1
290
     0
176
     1
 40
1.0
176
     1
 40
1.0
176
     1
  0
VISUALSTYLE
  5
3F
102
{ACAD_REACTORS
330
2A
102
}
330
2A
100
AcDbVisualStyle
  2
Sketchy
 70
    24
177
     3
291
     0
 70
    58
 90
        1
176
     1
 90
        2
176
     1
 90
        2
176
     1
 90
        0
176
     1
 40
0.6
176
     1
 40
30.0
176
     1
 62
     7
420
 16777215
176
     1
 90
        2
176
     1
 90
        2
176
     1
 62
     7
176
     1
 62
     7
176
     1
 90
        1
176
     1
 90
        1
176
     1
 40
40.0
176
     1
 90
       11
176
     1
 62
     7
176
     1
 40
1.0
176
     1
 90
        1
176
     1
 90
        6
176
     1
 90
        2
176
     1
 62
     7
176
     1
 90
        6
176
     1
 90
        0
176
     1
 90
        0
176
     1
290
     0
176
     1
 90
        1
176
     1
 40
0.0
176
     1
 90
        0
176
     1
290
     0
176
     1
290
     1
176
     1
290
     1
176
     1
290
     0
176
     1
290
     0
176
     1
290
     0
176
     1
290
     0
176
     1
290
     0
176
     1
290
     0
176
     1
 90
       50
176
     1
 40
0.0
176
     1
 40
1.0
176
     1
 90
        0
176
     1
 62
    18
420
        0
176
     1
 90
       50
176
     1
 90
        3
176
     1
 62
     5
420
      255
176
     1
290
     0
176
     1
 90
       50
176
     1
 90
       50
176
     1
 90
       50
176
     1
290
     0
176
     1
 90
       50
176
     1
 62
   256
176
     0
 40
1.0
176
     0
 90
        2
176
     1
  1
strokes_ogs.tif
176
     1
290
     0
176
     1
 40
1.0
176
     1
 40
1.0
176
     1
  0
VISUALSTYLE
  5
37
102
{ACAD_REACTORS
330
2A
102
}
330
2A
100
AcDbVisualStyle
  2
Thicken
 70
    13
177
     3
291
     1
 70
    58
 90
        2
176
     1
 90
        2
176
     1
 90
        0
176
     1
 90
        0
176
     1
 40
0.6
176
     1
 40
30.0
176
     1
 62
     7
420
 16777215
176
     1
 90
        1
176
     1
 90
        4
176
     1
 62
     7
176
     1
 62
   257
176
     1
 90
        1
176
     1
 90
        1
176
     1
 40
1.0
176
     1
 90
       12
176
     1
 62
     7
176
     1
 40
1.0
176
     1
 90
        1
176
     1
 90
        6
176
     1
 90
        2
176
     1
 62
     7
176
     1
 90
        5
176
     1
 90
        0
176
     1
 90
        0
176
     1
290
     0
176
     1
 90
        1
176
     1
 40
0.0
176
     1
 90
        0
176
     1
290
     0
176
     1
290
     1
176
     1
290
     1
176
     1
290
     0
176
     1
290
     0
176
     1
290
     0
176
     1
290
     0
176
     1
290
     0
176
     1
290
     0
176
     1
 90
       50
176
     1
 40
0.0
176
     1
 40
1.0
176
     1
 90
        0
176
     1
 62
    18
420
        0
176
     1
 90
       50
176
     1
 90
        3
176
     1
 62
     5
420
      255
176
     1
290
     0
176
     1
 90
       50
176
     1
 90
       50
176
     1
 90
       50
176
     1
290
     0
176
     1
 90
       50
176
     1
 62
   256
176
     0
 40
1.0
176
     0
 90
        2
176
     1
  1
strokes_ogs.tif
176
     1
290
     0
176
     1
 40
1.0
176
     1
 40
1.0
176
     1
  0
VISUALSTYLE
  5
30
102
{ACAD_REACTORS
330
2A
102
}
330
2A
100
AcDbVisualStyle
  2
Wireframe
 70
     5
177
     3
291
     0
 70
    58
 90
        0
176
     1
 90
        2
176
     1
 90
        0
176
     1
 90
        0
176
     1
 40
0.6
176
     1
 40
30.0
176
     1
 62
     7
420
 16777215
176
     1
 90
        1
176
     1
 90
        4
176
     1
 62
     7
176
     1
 62
   257
176
     1
 90
        1
176
     1
 90
        1
176
     1
 40
1.0
176
     1
 90
        0
176
     1
 62
   257
176
     1
 40
1.0
176
     1
 90
        1
176
     1
 90
        6
176
     1
 90
        2
176
     1
 62
     7
176
     1
 90
        3
176
     1
 90
        0
176
     1
 90
        0
176
     1
290
     0
176
     1
 90
        1
176
     1
 40
0.0
176
     1
 90
        0
176
     1
290
     0
176
     1
290
     1
176
     1
290
     1
176
     1
290
     0
176
     1
290
     0
176
     1
290
     0
176
     1
290
     0
176
     1
290
     0
176
     1
290
     0
176
     1
 90
       50
176
     1
 40
0.0
176
     1
 40
1.0
176
     1
 90
        0
176
     1
 62
    18
420
        0
176
     1
 90
       50
176
     1
 90
        3
176
     1
 62
     5
420
      255
176
     1
290
     0
176
     1
 90
       50
176
     1
 90
       50
176
     1
 90
       50
176
     1
290
     0
176
     1
 90
       50
176
     1
 62
   256
176
     0
 40
1.0
176
     0
 90
        2
176
     1
  1
strokes_ogs.tif
176
     1
290
     0
176
     1
 40
1.0
176
     1
 40
1.0
176
     1
  0
VISUALSTYLE
  5
40
102
{ACAD_REACTORS
330
2A
102
}
330
2A
100
AcDbVisualStyle
  2
X-Ray
 70
    25
177
     3
291
     0
 70
    58
 90
        2
176
     1
 90
        2
176
     1
 90
        1
176
     1
 90
        1
176
     1
 40
0.5
176
     1
 40
30.0
176
     1
 62
     7
420
 16777215
176
     1
 90
        1
176
     1
 90
        0
176
     1
 62
     7
176
     1
 62
   257
176
     1
 90
        1
176
     1
 90
        1
176
     1
 40
1.0
176
     1
 90
        8
176
     1
 62
     7
176
     1
 40
1.0
176
     1
 90
        1
176
     1
 90
        6
176
     1
 90
        2
176
     1
 62
     7
176
     1
 90
        3
176
     1
 90
        0
176
     1
 90
        0
176
     1
290
     0
176
     1
 90
       13
176
     1
 40
0.0
176
     1
 90
        0
176
     1
290
     0
176
     1
290
     1
176
     1
290
     1
176
     1
290
     0
176
     1
290
     0
176
     1
290
     0
176
     1
290
     0
176
     1
290
     0
176
     1
290
     0
176
     1
 90
       50
176
     1
 40
0.0
176
     1
 40
1.0
176
     1
 90
        0
176
     1
 62
    18
420
        0
176
     1
 90
       50
176
     1
 90
        3
176
     1
 62
     5
420
      255
176
     1
290
     0
176
     1
 90
       50
176
     1
 90
       50
176
     1
 90
       50
176
     1
290
     0
176
     1
 90
       50
176
     1
 62
   256
176
     0
 40
1.0
176
     0
 90
        2
176
     1
  1
strokes_ogs.tif
176
     1
290
     0
176
     1
 40
1.0
176
     1
 40
1.0
176
     1
  0
DICTIONARYVAR
  5
112
102
{ACAD_REACTORS
330
111
102
}
330
111
100
DictionaryVariables
280
     0
  1
1:1
  0
DICTIONARYVAR
  5
114
102
{ACAD_REACTORS
330
111
102
}
330
111
100
DictionaryVariables
280
     0
  1
Standard
  0
DICTIONARYVAR
  5
113
102
{ACAD_REACTORS
330
111
102
}
330
111
100
DictionaryVariables
280
     0
  1
Standard
  0
DICTIONARY
  5
117
330
6A
100
AcDbDictionary
280
     1
281
     1
  3
ACAD_ROUNDTRIP_2008_TABLESTYLE_CELLSTYLEMAP
360
118
  0
CELLSTYLEMAP
  5
118
102
{ACAD_REACTORS
330
117
102
}
330
117
100
AcDbCellStyleMap
 90
        3
300
CELLSTYLE
  1
TABLEFORMAT_BEGIN
 90
        5
170
     1
 91
        0
 92
    32768
 62
   257
 93
        1
300
CONTENTFORMAT
  1
CONTENTFORMAT_BEGIN
 90
        0
 91
        0
 92
        4
 93
        0
300

 40
0.0
140
1.0
 94
        5
 62
     0
340
11
144
0.25
309
CONTENTFORMAT_END
171
     1
301
MARGIN
  1
CELLMARGIN_BEGIN
 40
0.06
 40
0.06
 40
0.06
 40
0.06
 40
0.06
 40
0.06
309
CELLMARGIN_END
 94
        6
 95
        1
302
GRIDFORMAT
  1
GRIDFORMAT_BEGIN
 90
        0
 91
        1
 62
     0
 92
       -2
340
14
 93
        0
 40
0.045
309
GRIDFORMAT_END
 95
        2
302
GRIDFORMAT
  1
GRIDFORMAT_BEGIN
 90
        0
 91
        1
 62
     0
 92
       -2
340
14
 93
        0
 40
0.045
309
GRIDFORMAT_END
 95
        4
302
GRIDFORMAT
  1
GRIDFORMAT_BEGIN
 90
        0
 91
        1
 62
     0
 92
       -2
340
14
 93
        0
 40
0.045
309
GRIDFORMAT_END
 95
        8
302
GRIDFORMAT
  1
GRIDFORMAT_BEGIN
 90
        0
 91
        1
 62
     0
 92
       -2
340
14
 93
        0
 40
0.045
309
GRIDFORMAT_END
 95
       16
302
GRIDFORMAT
  1
GRIDFORMAT_BEGIN
 90
        0
 91
        1
 62
     0
 92
       -2
340
14
 93
        0
 40
0.045
309
GRIDFORMAT_END
 95
       32
302
GRIDFORMAT
  1
GRIDFORMAT_BEGIN
 90
        0
 91
        1
 62
     0
 92
       -2
340
14
 93
        0
 40
0.045
309
GRIDFORMAT_END
309
TABLEFORMAT_END
  1
CELLSTYLE_BEGIN
 90
        1
 91
        1
300
_TITLE
309
CELLSTYLE_END
300
CELLSTYLE
  1
TABLEFORMAT_BEGIN
 90
        5
170
     1
 91
        0
 92
        0
 62
   257
 93
        1
300
CONTENTFORMAT
  1
CONTENTFORMAT_BEGIN
 90
        0
 91
        0
 92
        4
 93
        0
300

 40
0.0
140
1.0
 94
        5
 62
     0
340
11
144
0.18
309
CONTENTFORMAT_END
171
     1
301
MARGIN
  1
CELLMARGIN_BEGIN
 40
0.06
 40
0.06
 40
0.06
 40
0.06
 40
0.06
 40
0.06
309
CELLMARGIN_END
 94
        6
 95
        1
302
GRIDFORMAT
  1
GRIDFORMAT_BEGIN
 90
        0
 91
        1
 62
     0
 92
       -2
340
14
 93
        0
 40
0.045
309
GRIDFORMAT_END
 95
        2
302
GRIDFORMAT
  1
GRIDFORMAT_BEGIN
 90
        0
 91
        1
 62
     0
 92
       -2
340
14
 93
        0
 40
0.045
309
GRIDFORMAT_END
 95
        4
302
GRIDFORMAT
  1
GRIDFORMAT_BEGIN
 90
        0
 91
        1
 62
     0
 92
       -2
340
14
 93
        0
 40
0.045
309
GRIDFORMAT_END
 95
        8
302
GRIDFORMAT
  1
GRIDFORMAT_BEGIN
 90
        0
 91
        1
 62
     0
 92
       -2
340
14
 93
        0
 40
0.045
309
GRIDFORMAT_END
 95
       16
302
GRIDFORMAT
  1
GRIDFORMAT_BEGIN
 90
        0
 91
        1
 62
     0
 92
       -2
340
14
 93
        0
 40
0.045
309
GRIDFORMAT_END
 95
       32
302
GRIDFORMAT
  1
GRIDFORMAT_BEGIN
 90
        0
 91
        1
 62
     0
 92
       -2
340
14
 93
        0
 40
0.045
309
GRIDFORMAT_END
309
TABLEFORMAT_END
  1
CELLSTYLE_BEGIN
 90
        2
 91
        1
300
_HEADER
309
CELLSTYLE_END
300
CELLSTYLE
  1
TABLEFORMAT_BEGIN
 90
        5
170
     1
 91
        0
 92
        0
 62
   257
 93
        1
300
CONTENTFORMAT
  1
CONTENTFORMAT_BEGIN
 90
        0
 91
        0
 92
        4
 93
        0
300

 40
0.0
140
1.0
 94
        2
 62
     0
340
11
144
0.18
309
CONTENTFORMAT_END
171
     1
301
MARGIN
  1
CELLMARGIN_BEGIN
 40
0.06
 40
0.06
 40
0.06
 40
0.06
 40
0.06
 40
0.06
309
CELLMARGIN_END
 94
        6
 95
        1
302
GRIDFORMAT
  1
GRIDFORMAT_BEGIN
 90
        0
 91
        1
 62
     0
 92
       -2
340
14
 93
        0
 40
0.045
309
GRIDFORMAT_END
 95
        2
302
GRIDFORMAT
  1
GRIDFORMAT_BEGIN
 90
        0
 91
        1
 62
     0
 92
       -2
340
14
 93
        0
 40
0.045
309
GRIDFORMAT_END
 95
        4
302
GRIDFORMAT
  1
GRIDFORMAT_BEGIN
 90
        0
 91
        1
 62
     0
 92
       -2
340
14
 93
        0
 40
0.045
309
GRIDFORMAT_END
 95
        8
302
GRIDFORMAT
  1
GRIDFORMAT_BEGIN
 90
        0
 91
        1
 62
     0
 92
       -2
340
14
 93
        0
 40
0.045
309
GRIDFORMAT_END
 95
       16
302
GRIDFORMAT
  1
GRIDFORMAT_BEGIN
 90
        0
 91
        1
 62
     0
 92
       -2
340
14
 93
        0
 40
0.045
309
GRIDFORMAT_END
 95
       32
302
GRIDFORMAT
  1
GRIDFORMAT_BEGIN
 90
        0
 91
        1
 62
     0
 92
       -2
340
14
 93
        0
 40
0.045
309
GRIDFORMAT_END
309
TABLEFORMAT_END
  1
CELLSTYLE_BEGIN
 90
        3
 91
        2
300
_DATA
309
CELLSTYLE_END
  0
ENDSEC
  0
EOF
